Deicide - Oblivious To Hell Chords & Tabs

 

Oblivious To Hell Chords & Tabs

Deicide Chords & Tabs

Version: 2 Type: Bass Tab 0 ratings
1 star 2 stars 3 stars 4 stars 5 stars
comments

Oblivious To Hell Bass Tab

Subject: Bass tab. Deicde's Oblivious to evil
Date: Sun, 08 Jun 1997 23:15:57 -0400
From: Steven Marduk 

please add this to a deicide folder. i saw that there were no song from
Deicde on this site and i didn't want anyone to think that there is
nowhere to get a bass tab for them. i will send you them as i scribe
them..
sincerely 
Steven Marduk



song: Oblivious to Evil 
PERFORMED BY DEICIDE
BASS TABLITURE SCRIBED BY STEVEN MARDUK
--------------------------------------------------------------------------
----------------------------------9-10-7--9-10-7--9-10-7---9-10-7---9-10-7
---------7-8-5-7-8-5-7-8-5-7-8-5-7-8-5---7-8-5---7-8-5----7-8-5----7-8-5--
-0-1=X20
       LET IT RING OUT 
-------|--|---------------------------------------------------------------
---9---|--|---------------------------------------------------------------
--7----|--|------------7-7-5---------------------------------------7-7-5--
-0-----|--|--0-3-3-1--------7-6-5--0-0-0-1-0-0-0-0-0-3-3-1-0-0-0-1------7-

--------------------------------------------------------------------------
--------------------------------------------------------------------------
-----------------------------------------7-7-5----------------------------
-6-5----0-0-0-1-0-0-0-0-0-3-3-1-0-0-0-1-------7-6-5-----------------------

--------------------------------------------------------------------------
--------------------------------------------------------------------------
-------------7-6-5----8-------------7-6-5---8-------------7-6-5---8-------
-0-0-0-0-0-0------6-7----0-0-0-0-0-0-----6-7---0-0-0-0-0-0-----6-7--------

--------------------------------------------------------------------------
--------------------------------------------------------------------------
-----------------------------------------7-7-5----------------------------
-----0-0-0-1-0-0-0-0-0-3-3-1-0-0-0-1----------7-6-5-----------------------

--------------------------------------------------------------------------
--------------------------------------------------------------------------
-----------------------------------------7-7-5----------------------------
-----0-0-0-1-0-0-0-0-0-3-3-1-0-0-0-1----------7-6-5-----------------------
NOW THE NEXT PART IS VERY FAST AND I WASN'T ABLE TO FIGURE IT OUT BUT
THIS 
IS WHAT I WAS ABLE TO GET FROM MOST OF IT

--------------------------------------------------------------------------
--------------------------------------------------------------------------
---------------------------------------1/2--------------------------------
--4-3-1-4-3-1-4-3-1-1-4-3-1-4-3-1-4-3-1-----------------------------------

--------------------------------------------------------------------------
--------------------------------------------------------------------------
---------------------------------------1/2--------------------------------
--4-3-1-4-3-1-4-3-1-1-4-3-1-4-3-1-4-3-1-----------------------------------
[ Tab from: http://www.guitartabs.cc/tabs/d/deicide/oblivious_to_hell_btab_ver_2.html ]
--------------------------------------------------------------------------
--------------------------------------------------------------------------
---------------------------------------1/2--------------------------------
--4-3-1-4-3-1-4-3-1-1-4-3-1-4-3-1-4-3-1-----------------------------------
NOW IT GOES INTO A REALLY REALLY FAST PART TAT IS GOING ALONG WITH THE 
RYTHEM GIUTAR AND I HAVE NO CLUE WHAT BRIAN AND ERIC ARE UP TO BUT IT 
STARTS BACK AT THE PART LISTED AND GOES TO THE END LIKE THAT

--------------------------------------------------------------------------
--------------------------------------------------------------------------
------------7-7-5---------------------------------------7-7-5-------------
--0-3-3-1--------7-6-5--0-0-0-1-0-0-0-0-0-3-3-1-0-0-0-1------7-6-5--------

--------------------------------------------------------------------------
--------------------------------------------------------------------------
--------------------------------------------------------7-7-5-------------
------------------------0-0-0-1-0-0-0-0-0-3-3-1-0-0-0-1------7-6-5--------

--------------------------------------------------------------------------
--------------------------------------------------------------------------
--------------------------------------------------------7-7-5-------------
------------------------0-0-0-1-0-0-0-0-0-3-3-1-0-0-0-1------7-6-5--------

--------------------------------------------------------------------------
--------------------------------------------------------------------------
-------------7-6-5----8-------------7-6-5---8-------------7-6-5---8-------
-0-0-0-0-0-0------6-7----0-0-0-0-0-0-----6-7---0-0-0-0-0-0-----6-7--------

--------------------------------------------------------------------------
--------------------------------------------------------------------------
-------------7-6-5----8-------------7-6-5---8-------------7-6-5---8-------
-0-0-0-0-0-0------6-7----0-0-0-0-0-0-----6-7---0-0-0-0-0-0-----6-7--------

--------------------------------------------------------------------------
--------------------------------------------------------------------------
-------------7-6-5----8-------------7-6-5---8-------------7-6-5---8-------
-0-0-0-0-0-0------6-7----0-0-0-0-0-0-----6-7---0-0-0-0-0-0-----6-7--------

--------------------------------------------------------------------------
--------------------------------------------------------------------------
--------------------------------------------------------7-7-5-------------
------------------------0-0-0-1-0-0-0-0-0-3-3-1-0-0-0-1------7-6-5--------

--------------------------------------------------------------------------
--------------------------------------------------------------------------
--------------------------------------------------------7-7-5-------------
------------------------0-0-0-1-0-0-0-0-0-3-3-1-0-0-0-1------7-6-5--------

--------------------------------------------------------------------------
--------------------------------------------------------------------------
--------------------------------------------------------7-7-5-------------
------------------------0-0-0-1-0-0-0-0-0-3-3-1-0-0-0-1------7-6-5--------

--------------------------------------------------------------------------
--------------------------------------------------------------------------
--------------------------------------------------------------------------
------------------------0-0-0-1-0-0-0-0-0-3-3-1-0-0-0-1-------------------

I must add that Glen Benton is one of the fastest bass players and one
of 
the most talented players there are today....
  

if you have any questions or comments contact me at smarduk@
geocities.com
part of the Hell Atlantic Web Ring...owner of the OFFICIAL BLOODBATH
PAGE!!
THANK YOU......
Comments