Deicide - Mad At God Chords & Tabs

 

Mad At God Chords & Tabs

Deicide Chords & Tabs

Version: 1 Type: Tab 0 ratings
1 star 2 stars 3 stars 4 stars 5 stars
comments

Mad At God Tab

   
 Intro:
eb|-Gtr. 1----------------------------------------------------------|
Bb|-----------------------------------------------------------------|
Gb|-----------------------------------------------------------------|
Db|-----------------------6-----------------------------6-----------|
Ab|-2-------------7-7-5-6-4-6-4-5-2-2-----------7-7-5-6-4-6-4-5-2-2-|
Eb|-0-------------5-5-3-4---4-2-3-0-0-----------5-5-3-4---4-2-3-0-0-|
  | .             * * * * * * * * * *           * * * * * * * * * *
eb|-Gtr. 2----------------------------------------------------------|
Bb|-----------------------------------------------------------------|
Gb|-----------------------------------------------------------------|
Db|-----------------------6-----------------------------6-----------|
Ab|-2-5-6-7--5-6--7-7-5-6-4-6-4-5-2-2-6-7--5-6--7-7-5-6-4-6-4-5-2-2-|
Eb|-0-------------5-5-3-4---4-2-3-0-0-----------5-5-3-4---4-2-3-0-0-|
                  * * * * * * * * * *           * * * * * * * * * *

Fig. 1 x 4
eb|-Gtr. 1------------------------|
Bb|-------------------------------|
Gb|------{3}----------------------|
Db|-667--556----------6-----------|
Ab|-----------7-7-5-6-4-6-4-5-2-2-|
Eb|-----------5-5-3-4---4-2-3-0-0-|
  |           * * * * * * * * * *
eb|-Gtr. 2------------------------|
Bb|-------------------------------|
Gb|-------------------------------|
Db|------{3}----------6-----------|
Ab|-667--556--7-7-5-6-4-6-4-5-2-2-|
Eb|-----------5-5-3-4---4-2-3-0-0-|
              * * * * * * * * * *

Verse 1[omit open E's on 7th time]:
eb|-Gtr. 1-----------------------x7|
Bb|--------------------------------|
Gb|-------------2233444455556------|
Db|--------------------------------|
Ab|--------------------------------|
Eb|-555544444444--------------0000-|
  | ^^^^^^^^^^^^              ^^^^
eb|-Gtr. 2-----------------------x7|
Bb|--------------------------------|
Gb|--------------------------------|
Db|--------------------------------|
Ab|-------------0011222233334------|
Eb|-555544444444--------------0000-|
    ^^^^^^^^^^^^^^^^^^^^^^^^^ ^^^^

Chorus 1[" = 4 notes]:
eb|-Gtr. 1---------x4|----------------x4|
Bb|------------------|------------------|
Gb|------------------|------------------|
Db|------------------|------------------|
Ab|-----2"--1"--0"---|-----2"--1"--0"---|
Eb|-0"3"--3"--2"--1"-|-0"3"--3"--2"--1"-|
  | * *   *   *   *    * *   *   *   *
Gb|-Gtr. 2-----------|-----4"--3"--2"-x4|
Db|------------------|-2"5"--5"--4"--3"-|
Ab|-----2"--1"--0"---|------------------|
Eb|-0"3"--3"--2"--1"-|------------------|
    * *   *   *   *

Bridge - Both gtrs. play an E5 then Fig. 1 x 4
Verse 2 - same as Verse 1
[ Tab from: http://www.guitartabs.cc/tabs/d/deicide/mad_at_god_tab.html ]
Chorus 2[" = 4 notes]:
eb|-Gtr. 1---------x4|----------------x3|------------------------|
Bb|------------------|------------------|------------------------|
Gb|------------------|------------------|------------------------|
Db|------------------|------------------|-------4-----3-----2--.-|
Ab|-----2"--1"--0"---|-----2"--1"--0"---|-2--5--2--5--1--4--0--3-|
Eb|-0"3"--3"--2"--1"-|-0"3"--3"--2"--1"-|-0--3-----3-----2-----1-|
  | * *   *   *   *    * *   *   *   *    *  *  *  *  *  *  *  *
Gb|-Gtr. 2---------x4|-----4"--3"--2"-x3|------------------------|
Db|------------------|-2"5"--5"--4"--3"-|-------4-----3-----2--.-|
Ab|-----2"--1"--0"---|------------------|-2--5--2--5--1--4--0--3-|
Eb|-0"3"--3"--2"--1"-|------------------|-0--3-----3-----2-----1-|
    * *   *   *   *                       *  *  *  *  *  *  *  *

Solo Rythym[w/ triplet feel]:
eb|---------------------------------------------------x2|
Bb|-----------------------------------------------------|
Gb|-----------------------------------------------------|
Db|-----5-----6-----5-----6---------5-----6-----5-----6-|
Ab|-----5-----6-----5-----6---------5-----6-----5-----6-|
Eb|-3-3---3-3---3-3---3-3---3-3-2-2---2-2---2-2---2-2---|
  | * *   * *   * *   * *   * * * *   * *   * *   * *
eb|-----------------------------------------------x2|
Bb|-------------------------------------------------|
Gb|-------------------------------------------------|
Db|-5-----3-----5-----6-----4-----2-----5-----6-----|
Ab|-3-----3-----5-----6-----2-----2-----5-----6-----|
Eb|---3-3---3-3---3-3---3-3---2-2---2-2---2-2---2-2-|
  |   * *   * *   * *   * *   * *   * *   * *   * *
eb|-------------------------------------------------|
Bb|-------------------------------------------------|
Gb|-------------------------------------------------|
Db|-------------------------------------------------|
Ab|-5-5-5-5-5-5-5-5-5-5-5-5-4-4-4-4-4-4-4-4-4-4-4-4-|
Eb|-3-3-3-3-3-3-3-3-3-3-3-3-2-2-2-2-2-2-2-2-2-2-2-2-|
  | * * * * * * * * * * * * * * * * * * * * * * * *
eb|---------------------------------------------|
Bb|---------------------------------------------|
Gb|---------------------------------------------|
Db|-------------5-----6-----------------5-----6-|
Ab|-5-5-5-5-5-5-5-5-5-6-5-5-4-4-4-4-4-4-5-4-4-6-|
Eb|-3-3-3-3-3-3---3-3---3-3-2-2-2-2-2-2---2-2---|
    * * * * * * * * * * * * * * * * * * * * * *

Interlude[w/ triplet feel]:
eb|-[" = 6 notes]------------------x4|
Bb|----------------------------------|
Gb|----------------------------------|
Db|----------------------------------|
Ab|---------------------5"6"----5"6"-|
Eb|-3"3"3"6"2"2"2"6"3"3"----2"2"-----|
  | * * * * * * * * * *     * *
eb|-----------------------------------------x2|
Bb|-------------------------------------------|
Gb|-------------------------------------------|
Db|----------------------------7"8"------7"8"-|
Ab|-5----8-8-8-4----8-8-8-5----5"6"-4----5"6"-|
Eb|-3----6-6-6-2----6-6-6-3----5"6"-2----5"6"-|
         * * *      * * *
Chorus 3 - Play Chorus 2 and on last bar, add staccato and palm-muted E5
END
Comments