Deicide - Confessional Rape Chords & Tabs

 

Confessional Rape Chords & Tabs

Deicide Chords & Tabs

Version: 1 Type: Tab 0 ratings
1 star 2 stars 3 stars 4 stars 5 stars
comments

Confessional Rape Tab

   
=================================================================================================
Song: Confessional Rape
Artist: Deicide
Album: Once Upon the Cross (1995)

Tabbed by Chris Rezendes (dudemcrude@yahoo.com)
Date started tab: 7/27/02
Date finished tab: 7/27/02

Tuning: Half step down

Notation Key
v: vibrato
t: tremolo bar
^: bend
.: palm mute
~: trill
p: pull-off
h: hammer-on
x: ghost note
/: slide up
\: slide down

Comments: A cool song to end this awesome album with.  The tab came out just dandy like, and if you spot any mistakes, be a pal and point it out to me or send me the correction.  Later.
=================================================================================================

Riff 1 x4
e|-----------------------------------------------------------------------------------------|
B|-----------------------------------------------------------------------------------------|
G|-----------------------------------------------------------------------------------------|
D|-----------------------------------------------------------------------------------------|
A|-----111000--------------111000-----------------111000----000333----111000----------111--|
E|--000-------000222333-000-------000222333111000-------000-------000-------000-222333-----|

Riff 2 x4
e|------------------------------|------------------------------|
B|------------------------------|------------------------------|
G|------------------------------|------------------------------|
D|------------------------------|------------------------------|
A|-----111000----333----111111--|---------------111------------|
E|--333-------000---333---------|--111444333-000----111444444--|

Riff 3 x1
e|--------------------------------|---------------------------------------|
B|--------------------------------|---------------------------------------|
G|--------------------------------|---------------------------------------|
D|--------------------------------|---------------------------------------|
A|--------------------------------|---------------------------------------|
E|--0001000300020005000400070006--|--00010003000200050004000300020001000--|
    ............................     ................................... 
[ Tab from: http://www.guitartabs.cc/tabs/d/deicide/confessional_rape_tab.html ]
e|--------------------------------|-------------------------|--------------------------------|
B|--------------------------------|-------------------------|--------------------------------|
G|--------------------------------|-------------------------|--------------------------------|
D|--------------------------------|-------------------------|--------------------------------|
A|--------------------------------|----------------8-7-4-3--|--------------------------------|
E|--0001000300020006000500070006--|--0001000300020-6-5-2-1--|--0001000300020005000400070006--|
    ............................     .............             ............................

e|---------------------------------|--------------------------------|---------------------------|
B|---------------------------------|--------------------------------|---------------------------|
G|---------------------------------|--------------------------------|---------------------------|
D|---------------------------------|--------------------------------|---------------------------|
A|---------------------------------|--------------------------------|----------------8-7-4-3-2--|
E|--0001000300020006000500030002---|--0001000300020005000400070006--|--0001000300020-6-5-2-1-0--|
    ............................      ............................     .............

Riff 4 x1
e|-------------------|-------------------|-------------------|-----------------------------|
B|-------------------|-------------------|-------------------|-----------------------------|
G|-------------------|-------------------|-------------------|-----------------------------|
D|-------------------|-------------------|-------------------|-----------------------------|
A|-------------------|-------------------|-------------------|-----------------------------|
E|--000200020003000--|--000200020003000--|--000200020003000--|--000-1h2-0-2h3-0-4p3-0-3p2--|
    ...............     ...............     ............... 

e|-------------------|----------------------------|
B|-------------------|----------------------------|
G|-------------------|----------------------------|
D|-------------------|-----------------------3----|
A|-------------------|---------------3-5/6-5-1-4--|
E|--000200020003000--|--00020002000--1-3/4-3---2--|
    ...............     ...........    

Riff 5 x1
e|-------------------|-------------------|-------------------|-----------------------------|
B|-------------------|-------------------|-------------------|-----------------------------|
G|-------------------|-------------------|-------------------|-----------------------------|
D|-------------------|-------------------|-------------------|-----------------------------|
A|-------------------|-------------------|-------------------|-----------------------------|
E|--000100010002000--|--000100010002000--|--000100010002000--|--000-0h1-0-1h2-0-3p2-0-2p1--|
    ...............     ...............     ...............

e|-------------------|------------------------|
B|-------------------|------------------------|
G|-------------------|------------------------|
D|-------------------|-----------------3---5--|
A|-------------------|---------------4-1-3-3--|
E|--000100010002000--|--00010001000--2---1----|
    ...............     ...........

Repeat Riff 1 x4
Repeat Riff 2 x4
Repeat Riff 3 x1
Repeat Riff 4 x1
Repeat Riff 5 x1
Repeat Riff 1 x4, start fading out first tim
Comments