Deicide - Child Of God Chords & Tabs

 

Child Of God Chords & Tabs

Deicide Chords & Tabs

Version: 1 Type: Tab 0 ratings
1 star 2 stars 3 stars 4 stars 5 stars
comments

Child Of God Tab

   
                        DEICIDE - CHILD OF GOD
                        From the Album IN TORMENT IN HELL
                        Copyright 2001 ROADRUNNER RECORDS
                        Version 1.0 - SEPTEMBER 2001

Transcribed by: death8699

For Questions, Comments, Newest Version, or Corrections contact
death8699: at unhollowed@aol.com

Check Out Death Warp, With More Transcriptions On It:
http://www.sorrowsend.com/DeathWarp

Tablature Notation
------------------
.  - palm mute                  /  - slide up to
\  - slide down to              ~  - vibrato
h  - hammer on                  b  - bend
p  - pull off                   Suffixes for bend
ph - pinch harmonic             f - full bend    h - half bend
*  - see comment                r - release      t - tap bend
X  - percussion mute            ~ - vibrato bend
@  - slight palm mute           () - ghost note, sustained note

Tune Gtr to D

CHILD OF GOD

Riff A                       7tx
|-------------------------------|
|-------------------------------|
|-------------------------------|
|-------------------------------|
|-1111--------------------------|
|------000022221111000011113333-|
| @@@@ @@@@@@@@@@@@@@@@@@@@@@@@
|
|
|Riff A.1                  1tx
|-----------------------------|
|-----------------------------|
|-----------------------------|
|-----------------------------|
|-1111------------------------|
|------000022221111000011113\-|
  @@@@ @@@@@@@@@@@@@@@@@@@@

[ Tab from: http://www.guitartabs.cc/tabs/d/deicide/child_of_god_tab.html ]
Riff B                                                     2tx
|-------------------------------------------------------------|
|-------------------------------------------------------------|
|-----8\7-8-------------------------8\7-8---------------------|
|-----6\5-6-9\8---5\4---------------6\5-6-9\8---5\4-------3---|
|-----------7\6---3\2---5\4---------------7\6---3\2---5\4-1---|
|-0-0-----------0-----0-3\2-0-0-0-0-----------0-----0-3\2-----|
| . .           .     .     . . . .           .     .
|
|
|Riff B.1                                                  1tx
|-------------------------------------------------------------|
|-------------------------------------------------------------|
|-----8\7-8-------------------------8\7-8---------------------|
|-----6\5-6-9\8---5\4---------------6\5-6-9\8---5\4-------3---|
|-----------7\6---3\2---5\4---------------7\6---3\2---5-4-1---|
|-0-0-----------0-----0-3\2-0-0-0-0-----------0-----0-3-2-----|
  . .           .     .     . . . .           .     . . .


Fill
|-------------------------------------------------------------|
|-------------------------------------------------------------|
|-----8\7-8-------------------------8\7-8---------------------|
|-----6\5-6-9\8---5\4---------------6\5-6-9\8---5\4-------3---|
|-----------7\6---3\2---5\4---------------7\6---3\2---5-4-1---|
|-0-0-----------0-----0-3\2-0-0-0-0-----------0-----0-3-2-----|
  . .           .     .     . . . .           .     . . .



Riff C                                      4tx
|----------------------------------------------|
|----------------------------------------------|
|----------------------------------------------|Gtrs
|-----------------------------------------6~---|I&II
|----------8p7p5---8-7----------8p7p5---7------|
|-00000000-------0-----00000000-------0--------|
| ........       .     ........       .
|
|Riff C.1                                      2tx
|-------------------------------------------------|
|-------------------------------------------------|
|--------------------------------------------8~---|Gtr
|----------10p9p7---10-9----------10p9p7---9------| II
|-------------------------------------------------|
|-00000000--------0------00000000--------0--------|
  ........        .      ........        .


Riff D
|-----------------------------------------|
|-----------------------------------------|
|-----------------------------------------|
|-----------------------------------------|
|---------------------------2p1-------1p0-|
|-2-3-2-4p3-1-2-1-3p2-3-4-3-----2-3-2-----|
| . . .     . . .     . . .     . . .
|
|                                      2tx
|-----------------------------------------|
|-----------------------------------------|
|-----------------------------------------|
|-----------------------------------------|
|---------------------------2p1-------1---|
|-2-3-2-4p3-1-2-1-3p2-3-4-3-----2-3-2-----|
  . . .     . . .     . . .     . . .


Riff A 7tx
Riff A.1 1tx
Riff B 2tx
Riff B.1 1tx
Fill
Riff C 2tx
Riff C + Riff C.1 2tx
Riff D 4tx
Riff A 7tx
Riff A.1 1tx
Riff B 2tx
Riff B.1 1tx
Fill
Riff C 2tx
Riff C + Riff C.1 2tx
Riff D 2tx
End.


Check Out Death Warp, With More Transcriptions On It:
http://www.sorrowsend.com/DeathWarp
Comments