Degraw Gavin - Follow Through Chords & Tabs

 

Follow Through Chords & Tabs

Degraw Gavin Chords & Tabs

Version: 1 Type: Tab 0 ratings
1 star 2 stars 3 stars 4 stars 5 stars
comments

Follow Through Tab

   
intro:

e-----3------2-------1------3--
b-----3------3-------3------3--
g-----0------2-------2------2--
d-----0------0-------0------0--
a---2------0------0-------0----
E-3------0------0-------0------

____________________________________________________________________
chorous:
[ Tab from: http://www.guitartabs.cc/tabs/d/degraw_gavin/follow_through_tab.html ]
  "G"    "D"    "Dminor"    "Dminor"
e-3-------2--------1-----------3-------
b-3-------3--------3-----------3-------
g-0-------2--------2-----------2-------
d-0-------0--------0-----------0-------
a-2------------------------------------
E-3------------------------------------
_____________________________________________________________________
outro:


e-----3------2-------1------3--
b-----3------3-------3------3--
g-----0------2-------2------2--
d-----0------0-------0------0--
a---2------0------0-------0----
E-3------0------0-------0------


if there is any questions please e-mail me at freakylizzard09@aol.com
Comments