Deftones - When Girls Telephone Boys Chords & Tabs

 

When Girls Telephone Boys Chords & Tabs

Deftones Chords & Tabs

Version: 3 Type: Tab 0 ratings
1 star 2 stars 3 stars 4 stars 5 stars
comments

When Girls Telephone Boys Tab

   
Deftones	When Girls telephone Boys
Ab-Db-Gb-Cb-Fb-Ab-Db

Couplet : les notes entre () remplacent la dernière mesure la dernière fois
|-0-0-0-0-0-0-0-0-0-0-0-0-0-0-0-0-0-0-0-0-0-0-0-0-0-0-0-0-0-0-0-0-0-0-0-0-0-0-0-0-0-0-0-0-0-0-0-0-|
|-0-0-0-0-0-0-0-0-0-0-0-0-0-0-0-0-0-0-0-0-0-0-0-0-0-0-0-0-0-0-0-0-0-0-0-0-0-0-0-0-0-0-0-0-0-0-0-0-|
|-------------------------------------------------------------------------------------------------|
|-8-8-8-8-8-8-8-8-8-8-8-8-8-8-8-81111111111111111111111111111111112121212121212121212121212121212-|
|-8-8-8-8-8-8-8-8-8-8-8-8-8-8-8-81111111111111111111111111111111112121212121212121212121212121212-|
|-6-6-6-6-6-6-6-6-6-6-6-6-6-6-6-6-9-9-9-9-9-9-9-9-9-9-9-9-9-9-9-910101010101010101010101010101010-|
|-------------------------------------------------------------------------------------------------|

|--0-0-0-0-0-0-0-0-0-0-0-0-0-0-0-0-0-0-0-0-0-0-0-0-0-0-0-0-0-0-0-0-0-0-0-0-0-0-0-0-0-0-0-0-0-0-0-0-|
|--0-0-0-0-0-0-0-0-0-0-0-0-0-0-0-0-0-0-0-0-0-0-0-0-0-0-0-0-0-0-0-0-0-0-0-0-0-0-0-0-0-0-0-0-0-0-0-0-|
|--------------------------------------------------------------------------------------------------|
|-121212121212121212121212121212121313131313131313131313131313131313131313131313131313131313131313-|
|-121212121212121212121212121212121313131313131313131313131313131313131313131313131313131313131313-|
|-101010101010101010101010101010101111111111111111111111111111111111111111111111111111111111111111-|
|----------------------------------------------------------------------------------------(12~\\\-)-|


Refrain
|---------------------------------------------------------------------------------------------------|
|---------------------------------------------------------------------------------------------------|
|---------------------------------------------------------------------------------------------------|
|---------------------------------------------------------------------------------------------------|
|-4-4-4-4~--4~--4~---4~~---5-4---4~----4-4~----4~---4-4-4-4~--4~--4~---4~~---5-4---4~----4-4~----5~-|
|-4-4-4-4~--4~--4~---4~~---5-4---4~----4-4~----4~---4-4-4-4~--4~--4~---4~~---5-4---4~----4-4~----5~-|
|-2-2-2-2~--2~--2~---2~~---3-2p0-2~--0-2-2~--0-2~---2-2-2-2~--2~--2~---2~~---3-2p0-2~--0-2-2~--0-3~-|
  .....                              .       .      .....                              .       .

[ Tab from: http://www.guitartabs.cc/tabs/d/deftones/when_girls_telephone_boys_tab_ver_3.html ]
Pont
|--0-0-0-0-0-0-0-0-0-0-0-0-0-0-0-0-0-0-0-0-0-0-0-0-0-0-0-0-0-0-0-0-|
|--0-0-0-0-0-0-0-0-0-0-0-0-0-0-0-0-0-0-0-0-0-0-0-0-0-0-0-0-0-0-0-0-|
|------------------------------------------------------------------|
|-1717171717171717171717171717171717171717171717171717171717171717-|
|------------------------------------------------------------------|
|-1515151515151515151515151515151515151515151515151515151515151515-|
|------------------------------------------------------------------|

|--0-0-0-0-0-0-0-0-0-0-0-0-0-0-0-0-0-0-0-0-0-0-0-0-0-0-0-0-0-0-0-0-|
|--0-0-0-0-0-0-0-0-0-0-0-0-0-0-0-0-0-0-0-0-0-0-0-0-0-0-0-0-0-0-0-0-|
|------------------------------------------------------------------|
|-1716161616161616161616161616161616161616161616161614141414131313-|
|------------------------------------------------------------------|
|-1514141414141414141414141414141414141414141414141412121212111111-|
|------------------------------------------------------------------|

|--0-0-0-0-0-0-0-0-0-0-0-0-0-0-0-0-0-0-0-0-0-0-0-0-0-0-0-0-0-0-0-0-|
|--0-0-0-0-0-0-0-0-0-0-0-0-0-0-0-0-0-0-0-0-0-0-0-0-0-0-0-0-0-0-0-0-|
|------------------------------------------------------------------|
|-1717171717171717171717171717171717171717171717171717171717171717-|
|------------------------------------------------------------------|
|-1515151515151515151515151515151515151515151515151515151515151515-|
|------------------------------------------------------------------|

|--0-0-0-0-0-0-0-0-0-0-0-0-0-0-0-0-0-0-0-0-0-0-0-0-0-0-0-0-0-0-0-0-|
|--0-0-0-0-0-0-0-0-0-0-0-0-0-0-0-0-0-0-0-0-0-0-0-0-0-0-0-0-0-0-0-0-|
|------------------------------------------------------------------| la deuxième fois, jouer un slide
|-1716161616161616161616161616161616141414141414141413131313131313-| descendant de la 12e case au lieu
|------------------------------------------------------------------| des 4 deniers accords
|-1514141414141414141414141414141414121212121212121211111111111111-|
|------------------------------------------------------------------|


Outro
|-------------------------------------------------------------------------------------------------|
|-------------------------------------------------------------------------------------------------|
|-------------------------------------------------------------------------------------------------|
|-------------------------------------------------------------------------------------------------|
|-5\4-4-4~--4-4-4~---4~~---5\4---4~--5-4~---5-4~---5\4-4-4~--4-4-4~---4~~---5\4---4~--5-4~---5-5~-|
|-5\4-4-4~--4-4-4~---4~~---5\4---4~--5-4~---5-4~---5\4-4-4~--4-4-4~---4~~---5\4---4~--5-4~---5-5~-|
|-3\2-2-2~--2-2-2~---2~~---3\2p0-2~--3-2~---3-2~---3\2-2-2~--2-2-2~---2~~---3\2p0-2~--3-2~---3-3~-|
                                     .      .                                         .      .
Comments