Deftones - When Girls Telephone Boys Chords & Tabs

 

When Girls Telephone Boys Chords & Tabs

Deftones Chords & Tabs

Version: 1 Type: Tab 0 ratings
1 star 2 stars 3 stars 4 stars 5 stars
comments

When Girls Telephone Boys Tab

   
Deftones - "WHEN GIRLS TELEPHONE BOYS"
album : Deftones
E-mail: cenif@hotmail.com

Por cenif


Verse 

Bb|--------------------------------------------------------------------------|
F#|--------------------------------------------------------------------------|
C#|--------------------------------------------------------------------------|
G#|-11-11-11-11-11-11-11-11-11-11-11-11-11-11-11-11-14-14-14-14-14-14-14-14--|
Eb|-11-11-11-11-11-11-11-11-11-11-11-11-11-11-11-11-14-14-14-14-14-14-14-14--|
G#|-11-11-11-11-11-11-11-11-11-11-11-11-11-11-11-11-14-14-14-14-14-14-14-14--|

Bb|--------------------------------------------------------------------------|
F#|--------------------------------------------------------------------------|
C#|--------------------------------------------------------------------------|
G#|-14-14-14-14-14-14-14-14-15-15-15-15-15-15-15-15-15-15-15-15-15-15-15-15--|
Eb|-14-14-14-14-14-14-14-14-15-15-15-15-15-15-15-15-15-15-15-15-15-15-15-15--|
G#|-14-14-14-14-14-14-14-14-15-15-15-15-15-15-15-15-15-15-15-15-15-15-15-15--|

Bb|--------------------------------------------------------------------------|
F#|--------------------------------------------------------------------------|
C#|--------------------------------------------------------------------------|
G#|-15-15-15-15-15-15-15-15-15-15-15-15-15-15-15-15-16-16-16-16-16-16-16-16--|
Eb|-15-15-15-15-15-15-15-15-15-15-15-15-15-15-15-15-16-16-16-16-16-16-16-16--|
G#|-15-15-15-15-15-15-15-15-15-15-15-15-15-15-15-15-16-16-16-16-16-16-16-16--|

Bb|--------------------------------------------------------------------------|
F#|--------------------------------------------------------------------------|
C#|--------------------------------------------------------------------------|
G#|-16-16-16-16-16-16-16-16-16-16-16-16-16-16-16-16--------------------------|
Eb|-16-16-16-16-16-16-16-16-16-16-16-16-16-16-16-16--------------------------|
G#|-16-16-16-16-16-16-16-16-16-16-16-16-16-16-16-16--------------------------|

Slide into the chorus 16\2

Chorus 1 (2) everything in () is done during chorus 2 only
P.M x x x                       x     x
Bb|--------------------------------------------------------------------------|
F#|-------------------------(4)---(4)---(4)----------------------------------|
C#|--------------------------------------------------------------------------|
G#|-2-2-2-2--2--2--2---3p2p0-2--2--2--2--2-----------------------------------|
Eb|-2-2-2-2--2--2--2---3p2p0-2--2--2--2--2-----------------------------------|
G#|-2-2-2-2--2--2--2---3p2p0-2--2--2--2--2-----------------------------------|

P.M x x x                       x     x
Bb|--------------------------------------------------------------------------|
F#|-------------------------(4)---(4)---(5)----------------------------------|
C#|--------------------------------------------------------------------------|
G#|-2-2-2-2--2--2--2---3p2p0-2--2--2--2--3-----------------------------------|
Eb|-2-2-2-2--2--2--2---3p2p0-2--2--2--2--3-----------------------------------|
G#|-2-2-2-2--2--2--2---3p2p0-2--2--2--2--3-----------------------------------|

P.M x x x                       x     x
Bb|--------------------------------------------------------------------------|
F#|-------------------------(4)---(4)---(4)----------------------------------|
C#|--------------------------------------------------------------------------|
G#|-2-2-2-2--2--2--2---3p2p0-2--2--2--2--2-----------------------------------|
Eb|-2-2-2-2--2--2--2---3p2p0-2--2--2--2--2-----------------------------------|
G#|-2-2-2-2--2--2--2---3p2p0-2--2--2--2--2-----------------------------------|
[ Tab from: http://www.guitartabs.cc/tabs/d/deftones/when_girls_telephone_boys_tab.html ]
on this last one during chorus 2 don't use harmonics
P.M x x x                       x     x  +
Bb|--------------------------------------------------------------------------|
F#|-------------------------(4)---(4)---(5)----------------------------------|
C#|--------------------------------------------------------------------------|
G#|-2-2-2-2--2--2--2---3p2p0-2--2--2--2-(3)----------------------------------|
Eb|-2-2-2-2--2--2--2---3p2p0-2--2--2--2-(3)----------------------------------|
G#|-2-2-2-2--2--2--2---3p2p0-2--2--2--2--3-----------------------------------|

Breakdown
 
Bb|--------------------------------------------------------------------------|
F#|--------------------------------------------------------------------------|
C#|-15-15-15-15-15-15-15-15-15-15-15-15-15-15-15-15-15-15-15-15-15-15-15-15--|
G#|--------------------------------------------------------------------------|
Eb|-13-13-13-13-13-13-13-13-13-13-13-13-13-13-13-13-13-13-13-13-13-13-13-13--|
G#|--------------------------------------------------------------------------|

Bb|--------------------------------------------------------------------------|
F#|--------------------------------------------------------------------------|
C#|-15-15-15-15-15-15-15-15-15\14-14-14-14-14-14-14-14-14-14-14-14-14-14-14--|
G#|--------------------------------------------------------------------------|
Eb|-13-13-13-13-13-13-13-13-13\12-12-12-12-12-12-12-12-12-12-12-12-12-12-12--|
G#|--------------------------------------------------------------------------|

Bb|--------------------------------------------------------------------------|
F#|--------------------------------------------------------------------------|
C#|-14-14-14-14-14-14-14-14-14-14\12-12-12-12\11-11-11-11--------------------|
G#|--------------------------------------------------------------------------|
Eb|-12-12-12-12-12-12-12-12-12-12\10-10-10-10\-9--9--9--9--------------------|
G#|--------------------------------------------------------------------------|

Bb|--------------------------------------------------------------------------|
F#|--------------------------------------------------------------------------|
C#|-15-15-15-15-15-15-15-15-15-15-15-15-15-15-15-15-15-15-15-15-15-15-15-15--|
G#|--------------------------------------------------------------------------|
Eb|-13-13-13-13-13-13-13-13-13-13-13-13-13-13-13-13-13-13-13-13-13-13-13-13--|
G#|--------------------------------------------------------------------------|

Bb|--------------------------------------------------------------------------|
F#|--------------------------------------------------------------------------|
C#|-15-15-15-15-15-15-15-15-15\14-14-14-14-14-14-14-14-14-14-14-14-14-14-14--|
G#|--------------------------------------------------------------------------|
Eb|-13-13-13-13-13-13-13-13-13\12-12-12-12-12-12-12-12-12-12-12-12-12-12-12--|
G#|--------------------------------------------------------------------------|

Bb|--------------------------------------------------------------------------|
F#|--------------------------------------------------------------------------|
C#|-14-14\12-12-12-12-12-12-12-12-12-12\11-11-11-11-11-11--------------------|
G#|--------------------------------------------------------------------------|
Eb|-12-12\10-10-10-10-10-10-10-10-10-10\-9--9--9--9--9--9--------------------|
G#|--------------------------------------------------------------------------|


arriba el metal cabrones!!!!!!!!!!!!!1


Song Structure:
Verse x2
Chorus 1 x4
verse x2
Chorus 2 x6
Breakdown
Chorus 1/2 mixed just listen its chorus 2 then 1......etc. till the song ends.

| /  slide up
| \  slide down
| h  hammer-on
| p  pull-off
| ~  vibrato
| +  harmonic
| x  Palm Mute note
Comments