Deftones - The Chauffeur Chords & Tabs

 

The Chauffeur Chords & Tabs

Deftones Chords & Tabs

Version: 1 Type: Tab 0 ratings
1 star 2 stars 3 stars 4 stars 5 stars
comments

The Chauffeur Tab

   
Deftones, The Chauffeur.
 Tabbed by Myke, A_Violet_Fluid@hotmail.com.
  
DEFTONES
THE CHAUFFEUR


Drop D Tuning (Transposed To C)

This is off a tribute To Duran Duran album
And this song kicks some serious ass!!!!!!
Since there weren't any tabs i decided to
Make this, it isn't perfect but any
Comments/corrections are welcome.
You can download the MP3 of thsi AMAZING song
At: http://www.mp3s4free.net/much.html

Intro/Verse :

|--------------------------------------|
|--------------------------------------|
|--10/11-11-11----11-11---11/13-13-13--|
|---x/-x--x--x-----x--x----x--x--x--x--|
|---8/9---9--9-----9--9----9/11-11-11--|
|---0-----0--0-----0--0----0-----0--0--|

|---------------------------------------------------|
|---------------------------------------------------|
|--13-13----13/14-14-14----14-14--14/10-10--10--10--|
|---x--x-----x/-x--x--x-----x--x---x/x---x---x---x--|
|--11-11----11/12-12-12----12-12--12/8---8---8---8--|
|---0--0-----0-----0--0-----0--0---0-----0---0---0--|

Chorus Part 1 :

|---------------------------------------------------|
|---------------------------------------------------|
|-11/14-14-14----14-14-14--14\\13-13-13----13-13-13--|
|--x/x---x--x-----x--x--x---x\\-x--x--x-----x--x--x--|
|--9/12-12-12----12-12-12--12\\11-11-11----11-11-11--|
|---------------------------------------------------|

Part 2 :

|--------------------------|
|--------------------------|
|--13\\11-11-11---11-11-11--|
|---x\\x---x--x----x--x--x--|
|--11\\9---9--9----9--9--9--|
|--------------------------|

Part 3 :

|------------------------|
|------------------------|
|-11/14-14-14--14-14-14--|
|--x/x---x--x---x--x--x--|
|--9/12-12-12--12-12-12--|
|------------------------|

Last Time Replace
Part 3 With This :
[ Tab from: http://www.guitartabs.cc/tabs/d/deftones/the_chauffeur_tab.html ]
|----------------------------------|
|----------------------------------|
|--17-17-17-17-17-17-17-17-17------|
|---x--x--x--x--x--x--x--x--x-ETC--|
|--15-15-15-15-15-15-15-15-15------|
|----------------------------------| 

Bridge :

|---------------------------------------------------|
|---------------------------------------------------|
|--19-19-19-19-19-19-19-19-17-17-17-17-17-17-17-17--|
|---x--x--x--x--x--x--x--x--x--x--x--x--x--x--x--x--|
|--17-17-17-17-17-17-17-17-15-15-15-15-15-15-15-15--|
|---------------------------------------------------|

|---------------------------------------------------|
|---------------------------------------------------|
|--19-19-19-19-19-19-19-19-19-19-19-19-19-19-19-19--|
|---x--x--x--x--x--x--x--x--x--x--x--x--x--x--x--x--|
|--17-17-17-17-17-17-17-17-17-17-17-17-17-17-17-17--|
|---------------------------------------------------|

Outro :

|---------------------------------------------------------------------|
|---------------------------------------------------------------------|
|---------------------------------------------------------------------|
|--6/7-7-7--7-7--7/9-9-9--9-9--9/10-10-10--10-10--10/12-12-12--12-12--|
|--6/7-7-7--7-7--7/9-9-9--9-9--9/10-10-10--10-10--10/12-12-12--12-12--|
|--6/7-7-7--7-7--7/9-9-9--9-9--9/10-10-10--10-10--10/12-12-12--12-12--|

Lyrics:

Out on the tar plains
The glides are moving
All looking for the new place to drive
You sit beside me
So newly charming
Sweating dew drops glisten
Freshing your side

And the sun slips down bedding heavy behind
the front of your dress all shadowy lined
And the droning engine throbs in time
With your beating heart

Way down the lane away
Living for another day
The aphids swarm up in the drifting haze
Swim seagull in the sky
Towards that hollow western isle
My envied lady holds you fast in her gaze

Sing
Blue silver

And watching lovers part
I feel you smiling
What glass splinters lie so deep in your mind?
To tear out from your eyes
With a word to stiffen brooding lies
But I'll only watch you leave me further behind

Sing
Blue silver
Sing
Sing
Blue silver
 
:: Ultimate Guitar Archive :: 
http://www.ultimate-guitar.com 



Comments