Deftones - The Boys Republic Chords & Tabs

 

The Boys Republic Chords & Tabs

Deftones Chords & Tabs

Version: 1 Type: Tab 0 ratings
1 star 2 stars 3 stars 4 stars 5 stars
comments

The Boys Republic Tab

----------------------------------------------------------------------
Song: The Boy's Republic
Artist: Deftones
Tab by: Deny Putman
----------------------------------------------------------------------
----------------------------------------------------------------------

This song is the bonustrack on "White Pony" limited edition so 
not so many people know this song:
/=slide up
[ Tab from: http://www.guitartabs.cc/tabs/d/deftones/the_boys_republic_tab.html ]
Intro/Ending/Interlude
G-------------------------------------------------------------
U-------------------------------------------------------------
I-------------------------------------------------------------
T-----5-5/6-5/6----------1--2/3-2/3---------------------------
A---3----------------3----------------------------------------
R-------------------------------------------------------------
     Repeat this a couple times

Verse
G-------------------------------------------------------------
U-------------------------------------------------------------
I-------------------------------------------------------------
T---111--101010---444-4--555----------------------------------
A---333--101010---666-6--555----------------------------------
R---333---8-8-8---666-6--333----------------------------------

Chorus:
G-------------------------------------------------------------
U-------------------------------------------------------------
I-------------------------------------------------------------
T---444--444-444---111-----}
A---666--666-666---333-----}Repeat 2 times
R---666--666-666---333-----}

  I hope you like it! Enjoy
Comments