Deftones - Teenager Chords & Tabs

 

Teenager Chords & Tabs

Deftones Chords & Tabs

Version: 2 Type: Tab 0 ratings
1 star 2 stars 3 stars 4 stars 5 stars
comments

Teenager Tab

   
Deftones	Tenager	
C-G-C-F-A-D
[ Tab from: http://www.guitartabs.cc/tabs/d/deftones/teenager_tab_ver_2.html ]
Intro / Outro
|----------------------------|
|----------------------------|
|----------------------------|
|-------6---8----------6---8-|
|----4--------------4--------|
|-4--------------4-----------|

Thème
|-----------------------------|
|-----------------------------|
|-----------------------------|
|-------6---8----------6h8--6-|
|----4------------------------|
|-4--------------4------------|
Comments