Deftones - Sweetest Perfection Chords & Tabs

 

Sweetest Perfection Chords & Tabs

Deftones Chords & Tabs

Version: 1 Type: Tab 0 ratings
1 star 2 stars 3 stars 4 stars 5 stars
comments

Sweetest Perfection Tab

#----------------------------------PLEASE NOTE---------------------------------#
#This file is the author's own work and represents their interpretation of the #
#song. You may only use this file for private study, scholarship, or research. #
#YoHHa 6uupu 3Tu3M, 6y Taa6bI TyhaMMbIT Kuhu3X3 Somos feos apestamos y pero    #
#                  reinamos yoto Maza faka!! rock en roll deTka!               #
#------------------------------------------------------------------------------##

Sweetest Perfection - Deftones (Depeche Mode cover)

Tabbed by Hiv
mailto:
Korn_fan@mail.ru

tune: standart Deft Tune (low to high): c#/g#/c#/f#/a#/d#

Intro/Verse:

|--------------------------------------------------|
|--------------------------------------------------|
|--------------------------------------------------|
|--------------------------------------------------|
|--------------------------------------------------|
|-121212--0-3-3-0-5-5-0-888--0-3-3-0-5-5-0-555-----|

then
|--------------------------------------------------|
|--------------------------------------------------|
|--------------------------------------------------|
|--------------------------------------------------|
|--------------------------------------------------|
|-0-3-3-0-5-5-0-777--0-3-3-0-5-5-------------------|
and repeat this two...

chorus

|--------------------------------------------------|
|--------------------------------------------------|
|--------------------------------------------------|
|--------------------------------------------------|
|--------------------------------------------------|
|-333-333--0-888-888-8p7-555-555-5-777-777---------|
thats chorus...

bridge
[ Tab from: http://www.guitartabs.cc/tabs/d/deftones/sweetest_perfection_tab.html ]
|------------------------------------------------------|
|--Sorry!!! I'm not completed this bridge...-----------|
|--If you have song, you will make this for one second.|
|--It easy, was simple time gonna f*ck me!!!-----------|
|--you know that sh*t...-------------------------------|
|------------------------------------------------------|

pre-breakdown

|--------------------------------------------------|
|--------------------------------------------------|
|--------------------------------------------------|
|--------------------------------------------------|
|-121212--0-3-3-0-5-5-0-888--0-3-3-0-5-5-0-555-----|
|-121212--0-3-3-0-5-5-0-888--0-3-3-0-5-5-0-555-----|
then
|--------------------------------------------------|
|--------------------------------------------------|
|--------------------------------------------------|
|--------------------------------------------------|
|-0-3-3-0-5-5-0-777--0-3-3-0-5-5-------------------|
|-0-3-3-0-5-5-0-777--0-3-3-0-5-5-------------------|
then
|--------------------------------------------------|
|--------------------------------------------------|
|--------------------------------------------------|
|--------------------------------------------------|
|-333-333--0-888-888-8p7-555-555-5-666-666---------|
|-333-333--0-888-888-8p7-555-555-5-666-666---------|

breakdown

|--------------------------------------------------|
|--------------------------------------------------|
|--------------------------------------------------|
|-00000000-88888888-8p7-5555555-777777777----------|
|-00000000-88888888-8p7-5555555-777777777----------|
|-00000000-88888888-8p7-5555555-777777777----------|

|--------------------------------------------------|
|--------------------------------------------------|
|--------------------------------------------------|
|-00000000-88888888-8p7-5555555-666666666----------|
|-00000000-88888888-8p7-5555555-666666666----------|
|-00000000-88888888-8p7-5555555-666666666----------|
repeat this...
and thats it!

song structure:
1.intro\verse with voice (low distortion or...)
2.verse (repeat 2)
3.chorus (repeat 2, on mine:))
4.verse
5.bridge he...he...he...
6.verse
7.pre-breakdown (heavy distortion)
8.Breakdown (outro).
thats it... 

(WARNING!!!i'm not sure in this structure
Just listen to song man!).
Comments