Deftones - Sweetest Perfection Chords & Tabs

 

Sweetest Perfection Chords & Tabs

Deftones Chords & Tabs

Version: 2 Type: Bass Tab 0 ratings
1 star 2 stars 3 stars 4 stars 5 stars
comments

Sweetest Perfection Bass Tab

   
band:deftones
song:sweetest perfection

d tuning, listen to the song to get timing its fucking awesome

riff 1
g-----------------------------------------------------------------|
d-----------------------------------------------------------------|
a-----------------------------------------------------------------|
d-0-0-0-0-3-0-5-0-8-8-8-0-3-0-5-0-5-5-5-0-3-0-5-0-7-7-7-0-3-0-5-0-|
[ Tab from: http://www.guitartabs.cc/tabs/d/deftones/sweetest_perfection_btab_ver_2.html ]
riff 2
g------------------------------------------------------------------------|
d------------------------------------------------------------------------|
a------------------------------------------------------------------------|
d-3-3-3-0-3-3-3-0-3-8-8-8-0-8-8-8-8-7-5-5-5-0-5-5-5-0-5-7-7-7-0-7-7-7-7-5|

riff 3
g---------------|
d---------------|
a---------------|
d-0-0-0-3-0-3-5-|

riff 4
g---------------------------------------------------------------------------------------------------|
d---------------------------------------------------------------------------------------------------|
a---------------------------------------------------------------------------------------------------|
d-3-3-3-3-3-3-3-3-3-3-3-3-8-8-8-8-8-8-8-8-8-8-8-8-5-5-5-5-5-5-5-5-5-5-5-5-5-7-7-7-7-7-7-7-7-7-7-7-7-|

song structure
riff 1
riff 2
riff 1
riff 2
riff 3
riff 2
riff 4

tabbed by deadlydarren@hotmail.com
Comments