Deftones - Street Carp Chords & Tabs

 

Street Carp Chords & Tabs

Deftones Chords & Tabs

Version: 3 Type: Tab 0 ratings
1 star 2 stars 3 stars 4 stars 5 stars
comments

Street Carp Tab

-------------------------------------------------------------------------------
			     STREET CARP - Deftones
-------------------------------------------------------------------------------

Tabbed by: Matt Bostock
Email:slipknotbos@hotmail.com

Tuning:Drop D

Hellooooooooo... another gooden here.. at the start use a quiet, dirty distort
then into a fully blown chunky bastard!   enjoy

e|---------------------------------------------------------------------------|
B|---------------------------------------------------------------------------|
G|---------------------------------------------------------------------------|
D|---------------------------------------------------------------------------|
A|-12-12-12-12-12-12-12-12--12/14-14-14-14-14-14-14--------------------------|
D|-12-12-12-12-12-12-12-12--12/14-14-14-14-14-14-14--------------------------|
[ Tab from: http://www.guitartabs.cc/tabs/d/deftones/street_carp_tab_ver_3.html ]
INTRO/VERSE
e|---------------------------------------------------------------------------|
B|---------------------------------------------------------------------------|
G|---------------------------------------------------------------------------|x4
D|-----------7-----------------7---------------------------------------------|
A|-4-5-4-0-4-7-5-4---4-5-4-0-4-7-5-4--7-7-7-7-11-11-11-11--------------------|
D|-4-5-4-0-4---5-4---4-5-4-0-4---5-4--7-7-7-7-11-11-11-11--------------------|


Chorus
e|---------------------------------------------------------------------------|
B|---------------------------------------------------------------------------|
G|---------------------------------------------------------------------------|
D|-----------9-9-------------------------------------------------------------|
A|-4-4-4-4-4-7-7-7-7-7-7-7-7-------------------------------------------------|
D|-4-4-4-4-4-----7-7-7-7-7-7-------------------------------------------------|#

Thats basically it and on the moshy bit just repeat the verse riff over and over.

Peace out yall
Comments