Deftones - Street Carp Chords & Tabs

 

Street Carp Chords & Tabs

Deftones Chords & Tabs

Version: 1 Type: Bass Tab 0 ratings
1 star 2 stars 3 stars 4 stars 5 stars
comments

Street Carp Bass Tab

   
Band:  Deftones
Song:  "Street Carp"
Album:  White Pony
Tabbed by:  Stephen Short (sms_stylee@yahoo.com)

Tuning:  C,G,C,F

Verse

F|----------------------------------------------------------------
C|----------------------------------------------------------------
G|--------------------------------2-2-2-2-2-2-2-2/6-6-6-6-6-6-6-6-
C|--6-7-6-0-6-9-6-0-6-7-6-0-6-9-0---------------------------------


Chorus
[ Tab from: http://www.guitartabs.cc/tabs/d/deftones/street_carp_btab.html ]
F|----------------------------------------------------------------
C|----------------------------------------------------------------
G|----------------------------------------------------------------
C|--6-6-6-6-6-6-6-6-6-6-6-6-7-7---2-2-2-2-2-2-2-2-2-2-2-2---------


Bridge and Ending

F|--------------------------------
C|--------------------------------
G|--------------------------------
C|--6-7-6-0-6-9-6-0-6-7-6-0-6-9-0-

It's a fast but easy song to play.

Comments