Deftones - Some People Chords & Tabs

 

Some People Chords & Tabs

Deftones Chords & Tabs

Version: 1 Type: Tab 0 ratings
1 star 2 stars 3 stars 4 stars 5 stars
comments

Some People Tab

   
#----------------------------------PLEASE NOTE---------------------------------#
#This file is the author's own work and represents their interpretation of the #
#song. You may only use this file for private study, scholarship, or research. #
#thanx to: my fingers, mom and step-father, sister, trash, stef, and all guy's #
#who's with me! special thanx to: defjeffrey and GOD...                        #
#                                                                              #
#                                  Sakha Power!                                #
#                                Please, rate it!                  (Devon) HIV #
#------------------------------------------------------------------------------#

song: "Some People"
band: Deftones
album: like linus (Demo 1989-93)
tabbed by: Hiv
mailto: korn_fan@mail.ru
Tune: standart: e#/a#/d#/g#/b#/e#

| :  Let ring
| PM Palm mute
| /  slide up
| \  slide down
| h  hammer-on
| p  pull-off
| ~  vibrato
| +  harmonic
| x  Mute note

Intro:
riff 1:
|-----------------------------------------------------------|
|------10--10--------10--10---------11--11---------11--11---|
|----11------11----11------11-----12------12-----12------12-|
|--11----11------11----11-------12----12-------12----12-----|
|-9-------------9-------------10-------------10-------------|
|-----------------------------------------------------------|

riff 2:
|-----------------------------------------------------------|
|----7-7-----7-7-----8-8-----8-8----------------------------|
|---8---8---8---8---9---9---9---9--- shit, and play this ---|
|--8--8----8--8----9--9----9--9--------- very faster? ------|
|-6-------6-------7-------7-------------- oh yeah ----------|
|-----------------------------------------------------------|

riff 3:
|-----------------------------|
|-8----8----------------------|
|-9----9-- strum this --------|
|-9----9----- two ------------|
|-7----7----------------------|
|-----------------------------|

verse: Go!
riff 1:
|-----------------------------------------------------------|
|-----------------------------------------------------------|
|-9/11-111111--9/11-11/1212\11------------------------------|
|-----------------------------------------------------------|
|-7/99-999999--7/99-99/1010\9-------------------------------|
|-----------------------------------------------------------|

riff 2:
|---------0-------------------------------------------------|
|---------0-------------------------------------------------|
|-4/77-77-7--4/77-77/88\7-----------------------------------|
|---------7-------------------------------------------------|
|-6/55-55-5--6/55-55/66\5-----------------------------------|
|-----------------------------------------------------------|

riff 3:
|----------------------------|
|----------------------------|
|-/11------ strum this ------|
|-------------- one ---------|
|-/9-------------------------|
|----------------------------|
[ Tab from: http://www.guitartabs.cc/tabs/d/deftones/some_people_tab.html ]
chorus:
|-------3-------------0------------|
|-------3-------------0------------|
|-------0----3--------7-44-3-------|
|-2-222---22-3-22-4/5-7-44-3-4-2---|
|-2-222---22-1-22-4/5-5-22-1-4-2---|
|-0-000---00---00-2/3--------2-0---|
PM  ...   ..   ..

bridge:
riff 1:
|---0----0---0-----------------------|
|----0-------------------------------|
|-0----0--0---0--------- bridge is --|
|-2----2----5----5\4---- fucked up --|
|-2----2----5----5\4--- am not sure -|
|-0----0----3----3\2-- in this shit -|

riff 2:
|-----0-------0-------0-------0---|
|---0--0----0--0----0--0----0--0--|
|-3--3--3-3--3--3-3--3--3-3--3--3-|
|-4-------4-------4-------4-------|
|-4-------4-------4-------4-------|
|-2-------2-------2-------2-------|

riff 3:
|---------------------------|
|---------------------------|
|-0----- strum this --------|
|-2-------- one ------------|
|-2-------------------------|
|-0-------------------------|

breakdown: Goooo!!!
riff 1:
|--------------------------------|--------------------------|
|--------------------------------|--------------------------|
|-99999/12-12\9-99999/12-12\9----|--->/12-12/15-------------|
|-99999---------99999------------|-------------- sometimes -|
|-77777/10-10\7-77777/10-10\7----|--->/10-10/14-------------|
|--------------------------------|--------------------------|

riff 2:
|-----------------------------------------------------------|
|-----------------------------------------------------------|
|-55555/8-8\5-55555\4/5\4-----------------------------------|
|-55555-------55555\4/5\4-----------------------------------|
|-33333/6-6\3-33333\2/3\2-----------------------------------|
|-----------------------------------------------------------|

riff 3:
|-----------------------------------------------------------|
|-----------------------------------------------------------|
|-55555/8-8\5-55555/8\5\4-----------------------------------|
|-55555-------55555/8\5\4-----------------------------------|
|-33333/6-6\3-33333/6\3\2-----------------------------------|
|-----------------------------------------------------------|

riff 4:
|---------------------------------------------------------------------------|
|---------------------------------------------------------------------------|
|---------------------------------------------------------------------------|
|-4-4444-5-5-5-5\4-4-4444-5-5-5-5\4-4-4444-5-5-5-5\4-4-4444-5-5-5-5\4-------|
|-4-4444-5-5-5-5\4-4-4444-5-5-5-5\4-4-4444-5-5-5-5\4-4-4444-5-5-5-5\4-------|
|-2-2222-3-3-3-3\2-2-2222-3-3-3-3\2-2-2222-3-3-3-3\2-2-2222-3-3-3-3\2-------|
PM  ...  .   .       ...  .   .       ...  .   .       ...  .   .     

riff 5:
|---------------------------|
|---------------------------|
|-0----- strum this --------|
|-2-------- end ------------|
|-2-------------------------|
|-0-------------------------|

very fucking faster!!! 
aaaahhh...
fuck am tired and sick!!!
thanx you very fuck'n much!!!

song structure:
1.intro: 1,2,1,2,1,2,3.
2.verse: 1,1,2,2,3. x2
3.chorus: x2
4.verse: 1,1,2,2,3. x2
5.chorus: x2
6.bridge: 1,1,2,1,1,2,3.
7.breakdown: 1,2,1,3,4,1,2,1,3,4,5.
Comments