Deftones - Rx Queen Chords & Tabs

 

Rx Queen Chords & Tabs

Deftones Chords & Tabs

Version: 1 Type: Tab 0 ratings
1 star 2 stars 3 stars 4 stars 5 stars
comments

Rx Queen Tab

   
Band: Deftones
Song: RX Queen
Album: White Pony
tabbed by left_zero@yahoo.com

Tunning: Tune one step down and then tune the 6th string another whole 
step (C,G,C,F,A,D)

Intro: Drums and maybe some harmonics

Verse:
D|-----------------------|
A|-----------------------|
F|-----------------------|
C|-----------------------|  4x
G|-----------------------|
C|--0--2--2--/9--3:------|

Chorus:
D|---------------------------------------|
A|---------------------------------------|
F|---------------------------------------|
C|--0--2--2-2-2-2-2-2--0--5--5-5-5-5-5-5-|  2x
G|--0--2--2-2-2-2-2-2--0--5--5-5-5-5-5-5-|
C|--0--2--2-2-2-2-2-2--0--5--5-5-5-5-5-5-|

Play the Verse Riff 4x
and then the Chorus Riff 4x
[ Tab from: http://www.guitartabs.cc/tabs/d/deftones/rx_queen_tab.html ]
Bridge:
D|--------------------------------|
A|--------------------------------|
F|--------------------------------|
C|--3-3--3-3-3-3-3-3-3-3--3-3-3-3-|  4x
G|--3-3--3-3-3-3-3-3-3-3--3-3-3-3-|
C|--3-3--3-3-3-3-3-3-3-3--3-3-3-3-|

Play the Verse Riff 4x,
the Chorus Riff 4x,
the Bridge 4x
and the Verse Riff 4x

then, they play the harmonics again (I THINK)
and this:
D|-------------------------------------------------
A|-13-13-13-13-13-13-13-13-12-12-12-12-12-12-12-12-
F|-------------------------------------------------  very fast
C|-------------------------------------------------  'til fade out
G|-------------------------------------------------
C|-------------------------------------------------
I'm not sure if they play the riff above or if it's some effect
Comments