Deftones - Root Chords & Tabs

 

Root Chords & Tabs

Deftones Chords & Tabs

Version: 5 Type: Tab 0 ratings
1 star 2 stars 3 stars 4 stars 5 stars
comments

Root Tab

   
Deftones	Root
E-A-D-G-B-E

Intro
|---------------------------------------------------------------|
|---------------------------------------------------------------|
|-----9-9---------7-7-------------------9-9---------------------|
|---------9-91010----1010-9-9---------------9-91010-------------|
|-7-7------------------------1010---7-7-------------------------|
|---------------------------------------------------0-0-----0-0-|
 \______________________________/                   ...     ...
                3x

Refrain
|---------------------------------|
|---------------------------------|
|---------------------------------|
|-----2-2-4-4-5-5-7-7-5-5-4-4-----|
|-2-2-2-2-2-2-3-3-5-5-3-3-2-2-5-5-|
|-0-0-------------------------3-3-|

Partie Heavy							seconde partie Heavy
|-------------------------------------0~~~~~~~~~~~~----|   |----------0~~~~~~~~~~~~----|
|-------------------------------------0~~~~~~~~~~~~----|   |----------0~~~~~~~~~~~~----|
|----------------------------------------------0~~~--x-|   |-------------------0~~~--x-|
|-1~~------1~~------1~~------1~~------2~~~~~~~~~~~~-xx-|   |----------2~~~~~~~~~~~~-xx-|
|-1~~------1~~------1~~------1~~------2~~~~~~~~~~~~-xx-|   |----------2~~~~~~~~~~~~-xx-|
|-0~~-0000-0~~-0000-0~~-00-0-0~~-0000-0~~~~~~~~~~~~-xx-|   |-00000000-0~~~~~~~~~~~~-xx-|
      ....     ....     .. .     ....                        ........

Couplet
|-----------------------------------------------------------------------------------------------------|
|-----------------------------------------------------------------------------------------------------|
|-----9-9---------7-7-------------------9-9---------7-7-------------------9-9---------7-7-------------|
|---------9-91010----1010-9-9---------------9-91010----1010-9-9---------------9-91010----1010-9-9-----|
|-7-7------------------------1010---7-7------------------------1010---7-7------------------------10\\-|
|------------------------------------------------------------------------------------------------12\\-|
  ...............................
  \_____________________________/
                6x
[ Tab from: http://www.guitartabs.cc/tabs/d/deftones/root_tab_ver_5.html ]
Pont
|----------------------------------------------------------------------------------------------|
|----------------------------------------------------------------------------------------------|
|----------------------------------------------------------------------------------------------|
|----------8\7---7\6---6\5---5\3---4\3-3-------2~------2h3-2-2---8\7---7\6---6\5---5\3---4\3-3-|
|----------8\7---7\6---6\5---5\3---4\3-3-------2~------2~~-0-0---8\7---7\6---6\5---5\3---4\3-3-|
|-00000000-6\5-0-5\4-0-4\3-0-3\2-0-2\1-1--0000-0~-0000-0~~-0-0---6\5-0-5\4-0-4\3-0-3\2-0-2\1-1-|
  ........     .     .     .     .        ....    ....               .     .     .     .

|----------------------------------------------------------------------------|
|----------------------------------------------------------------------------|
|----------------------------------------------------------------------------|
|------2~------3/4\3~---8\7---7\6---6\5---5\3---4\3-3-------2~------2~-3~-2~-|
|------2~------1/2\1~---8\7---7\6---6\5---5\3---4\3-3-------2~------2~-2~-2~-|
|-0000-0~-0000-1/2\1~---6\5-0-5\4-0-4\3-0-3\2-0-2\1-1--0000-0~-0000-0~-0~-0~-|
  ....    ....             .     .     .     .         ....    ....

|-----------------------------------------------------------------------------------------0~~~~~~~~~~~~-|
|-----------------------------------------------------------------------------------------0~~~~~~~~~~~~-|
|-------------------------------------------------------------------------------------------------------|
|-8\7---7\6---6\5---5\3---4\3-3-------2~------3/4\3~--1~~------1~~------1~~------1~~------2~~~~~~~~~~~~-|
|-8\7---7\6---6\5---5\3---4\3-3-------2~------1/2\1~--1~~------1~~------1~~------1~~------2~~~~~~~~~~~~-|
|-6\5-0-5\4-0-4\3-0-3\2-0-2\1-1--0000-0~-0000-1/2\1~--0~~-0000-0~~-0000-0~~-00-0-0~~-0000-0~~~~~~~~~~~~-|
      .     .     .     .        ....    ....             ....     ....     .. .     ....

|------------0----------------0------------0~~-|
|--------------0-------------0-------------0~~-|
|-----0----------0----------0--------------0~~-|
|-2----------------------------------2--2--2~~-|
|---2--------------------------------2--2--2~~-|
|------------------------------------0--0--0~~-|

Final									       Outro
|---------------------------------------------------0~~-----------0~~-|  |-----------------------0-|
|---------------------------------------------------0~~-----------0~~-|  |-----------------------0-|
|-9~10~~13~~~~14~13~10~9~10~~13~~~~14~13~10~9~------0~~---9~------0~~-|  |----------------------2--|
|-----------------------------------------------2~--2~~-------2~--2~~-|  |-3~-3~-3~~--2--2-----3---|
|-7~~8~~11~~~~12~11~~8~7~~8~~11~~~~12~11~~8~7~--2~--2~~---7~--2~--2~~-|  |-3~-3~-3~~--2--2----3----|
|-------------------------------------------0~--0~--0~~---0~--0~--0~~-|  |-1~-1~-1~~--0--0---1-----|
  ~~~~~~~~~~~~~~~~~~~~~~~~~~~~~~~~~~~~~~~~~~                                          .  .
Comments