Deftones - Root Chords & Tabs

 

Root Chords & Tabs

Deftones Chords & Tabs

Version: 2 Type: Tab 0 ratings
1 star 2 stars 3 stars 4 stars 5 stars
comments

Root Tab




                                     Root                                       

artist: Deftones
song:   Root
tab:    dardanmetushi@hotmail.com
tuning: EBGDAE

                                             2x                                 
E||------------------------------------------||--------------------------------|
B||------------------------------------------||--------------------------------|
G||*------9-9-----------7-7-----------------*||------9-9-----------------------|
D||*----------9-9-10-10-----10-10-9-9-------*||----------9-9-10-10-1-1---1-1---|
A||---7-7-----------------------------10-10--||--7-7---------------1-1---1-1---|
E||------------------------------------------||--------------------0-0---0-0---|


                                     3x                           
|------------------------------------||-------------------------||
|------------------------------------||-------------------------||
|*------4-4-------------------------*||*-----------------------*||
|*--2-2-2-2-4-4-5-5-7-7-5-5-4-4-----*||*--1------------1-1-1-1-*||
|---2-2-----2-2-3-3-5-5-3-3-2-2-5-5--||---1------------1-1-1-1--||
|---0-0-------------------------3-3--||---0------------0-0-0-0--||


                                                                   
----------------------|-----------------------|-------------------|
----------------------|-----------------------|-------------------|
----------------------|-----------------------|--1----------------|
--1------------1-1--1-|--1------------1-1-1-1-|--1----------------|
--1------------1-1--1-|--1------------1-1-1-1-|--1----------------|
--0------------0-0--0-|--0------------0-0-0-0-|--0----------------|


                                                             
--0-----------------|------------------|--------------------|
--0-----------------|------------------|--------------------|
-----------0--------|------------------|----------------x-x-|
--------------------|------------------|----------------x-x-|
--------------------|------------------|----------------x-x-|
--------------------|------------------|--------------------|


                                           2x
|------------------------------------------||
|------------------------------------------||
|*------9-9-----------7-7-----------------*||
|*----------9-9-10-10-----10-10-9-9-------*||
|---7-7-----------------------------10-10--||
|------------------------------------------||


                                            
------------------------------------------||
------------------------------------------||
*------9-9-----------7-7-----------------*||
*----------9-9-10-10-----10-10-9-9-------*||
---7-7-----------------------------10-10--||
------------------------------------------||


                                                                           7x
-------------------------------------||------------------------------------||
-------------------------------------||------------------------------------||
------9-9-----------7-7--------------||*------4-4-------------------------*||
----------9-9-10-10-----10-10-9-9/-1-||*--2-2-2-2-4-4-5-5-7-7-5-5-4-4-----*||
--7-7---------------------------7/-1-||---2-2-----2-2-3-3-5-5-3-3-2-2-5-5--||
--------------------------------7/-0-||---0-0-------------------------3-3--||


                                                                               
------------------|-------------------|--0-----------------|------------------|
------------------|-------------------|--0-----------------|------------------|
--1-1-1-1-1-1-1-1-|--1----------------|-----------0--------|------------------|
--1-1-1-1-1-1-1-1-|--1----------------|--------------------|------------------|
--1-1-1-1-1-1-1-1-|--1----------------|--------------------|------------------|
--0-0-0-0-0-0-0-0-|--0----------------|--------------------|------------------|


                                                                5x
--------------------||------------------------------------------||
--------------------||------------------------------------------||
----------------x-x-||*------9-9-----------7-7-----------------*||
----------------x-x-||*----------9-9-10-10-----10-10-9-9-------*||
----------------x-x-||---7-7-----------------------------10-10--||
--------------------||------------------------------------------||


                                                                               
----------------------------------------|-------------------------------------|
----------------------------------------|-------------------------------------|
------9-9-----------7-7-----------------|------9-9-----------7-7--------------|
----------9-9-10-10-----10-10-9-9-------|----------9-9-10-10-----10-10-9-9/-1-|
--7-7-----------------------------10-10-|--7-7---------------------------7/-1-|
----------------------------------------|--------------------------------7/-0-|

[ Tab from: http://www.guitartabs.cc/tabs/d/deftones/root_tab_ver_2.html ]
                                     7x                   
|------------------------------------||------------------|
|------------------------------------||------------------|
|*------4-4-------------------------*||--1-1-1-1-1-1-1-1-|
|*--2-2-2-2-4-4-5-5-7-7-5-5-4-4-----*||--1-1-1-1-1-1-1-1-|
|---2-2-----2-2-3-3-5-5-3-3-2-2-5-5--||--1-1-1-1-1-1-1-1-|
|---0-0-------------------------3-3--||--0-0-0-0-0-0-0-0-|


                                                             
-----------------------------||-----------------------------|
-----------------------------||-----------------------------|
-----------------------------||*--1-1-1-1---1-1-1------4----|
-----------------------------||*--1-1-1-1---1-1-1------2----|
--8/7--7/6--6/5--5/4--3/4/-3-||---1-1-1-1-2-1-1-1-2----2----|
--6/5--5/4--4/3--3/2--1/2/-1-||---0-0-0-0-0-0-0-0-0----0----|


                              2x                              
------------------------------||-----------------------------|
------------------------------||-----------------------------|
-----------------------------*||*--1-1-1-1---1-1-1------1----|
-----------------------------*||*--1-1-1-1---1-1-1------1----|
--8/7--7/6--6/5--5/4--3/4/-3--||---1-1-1-1-2-1-1-1-2----1----|
--6/5--5/4--4/3--3/2--1/2/-1--||---0-0-0-0-0-0-0-0-0----0----|


                                                                           
|-------------------------||----------------------|-----------------------|
|-------------------------||----------------------|-----------------------|
|*-----------------------*||----------------------|-----------------------|
|*--1------------1-1-1-1-*||--1------------1-1--1-|--1------------1-1-1-1-|
|---1------------1-1-1-1--||--1------------1-1--1-|--1------------1-1-1-1-|
|---0------------0-0-0-0--||--0------------0-0--0-|--0------------0-0-0-0-|


                                                                              
--0----------------|---------------------|--0------------------|------|------|
--0----------------|---------------------|-------0-------------|------|------|
-------------------|------------0--------|------------0--------|------|------|
-------------------|--2------------------|------------2--------|------|------|
-------------------|---------------------|---------------------|------|------|
-------------------|-------0-------------|---------------------|------|------|


                                            
---------------------|------------0--------|
---------------------|------------0--------|
------------0--------|------------0--------|
--2------------------|------------0--------|
---------------------|------------0--------|
-------0-------------|--0----0----0--------|


                                             
--------------------------------------------|
--------------------------------------------|
--9-9-10-10-13--13--14-14-13-13-10-10-10-10-|
--------------------------------------------|
--7-7-8--8--11--11--12-12-11-11-8--8--8--8--|
--------------------------------------------|


                                                                   
--------------------------------------------|------------0--------|
--------------------------------------------|------------0--------|
--9-9-10-10-13--13--14-14-13-13-10-10-10-10-|------------0--------|
--------------------------------------------|------------0--------|
--7-7-8--8--11--11--12-12-11-11-8--8--8--8--|------------0--------|
--------------------------------------------|--0----0----0--------|


                                                                   
------------0--------|--------------------------------------------|
------------0--------|--------------------------------------------|
------------0--------|--9-9-10-10-13--13--14-14-13-13-10-10-10-10-|
------------0--------|--------------------------------------------|
------------0--------|--7-7-8--8--11--11--12-12-11-11-8--8--8--8--|
--0----0----0--------|--------------------------------------------|


                                                                   
--------------------------------------------|------------0--------|
--------------------------------------------|------------0--------|
--9-9-10-10-13--13--14-14-13-13-10-10-10-10-|------------0--------|
--------------------------------------------|------------0--------|
--7-7-8--8--11--11--12-12-11-11-8--8--8--8--|------------0--------|
--------------------------------------------|--0----0----0--------|


                                                                  
------------0--------|---------------------|------------0--------|
------------0--------|---------------------|------------0--------|
------------0--------|--2----2----2--------|--1-1-------2--------|
------------0--------|--3----3----3--------|--1-1-------3--------|
------------0--------|--3----3----3--------|--1-1-------3--------|
--0----0----0--------|--1----1----1--------|--0-0-------1--------|


                    
------------------||
------------------||
------------------||
------------------||
------------------||
------------------||



Comments