Deftones - Pink Maggit Chords & Tabs

 

Pink Maggit Chords & Tabs

Deftones Chords & Tabs

Version: 6 Type: Tab

Pink Maggit Tab

   
E-------------------------------------------------I
B-------------------------------------------------I
G-------------5-------0---------------------------I
D-----6-----5----------------2--------------------I
A---6-----3---------3------2----------------------I
E-4---------------1------0------------------------I
  G#5(?)  C5      F5     E5
I'll stick you a little, to take your oxygen away


E-------------------------------------------------I
B-------------------------------------------------I
G-------------5(^*)---0---0-0-2-1-0---------------I
D-----6-----5-----------3---------------2---------I
A---6-----3---------3-----------------2-----------I
E-4---------------1-----------------0-------------I
then I'll set you on fire, cause I'm on fire, and I'm with you alone
I'm so
*if that makes the sound more nice


E-------------------------------------------------I
B-------------------------------------------------I
G-------------5(^*)---0---0-0-2-1-0---------------I
D-----6-----5-----------3---------------2---------I
A---6-----3---------3-----------------2-----------I
E-4---------------1-----------------0-------------I

Into this whore, afraid I might lose her, so forget about me
[ Tab from: http://www.guitartabs.cc/tabs/d/deftones/pink_maggit_tab_ver_6.html ]
E-------------------------------------------------I
B-------------------------------------------------I
G-------------5(^*)---0---0-0-2-1-0---------------I
D-----6-----5-----------3---------------2---------I
A---6-----3---------3-----------------2-----------I
E-4---------------1-----------------0-------------I

because I'll stick you

E-------------------------------------------------I
B-------------------------------------------------I
G-------5-----------------------------------------I
D-6-----5-----3-----2-----------------------------I
A-6-----3(x8)-3-----2-----------------------------I
E-4-(x8)------1(x8)-0(x8)-------------------------I

E-------------------------------------------------I
B-------------------------------------------------I
G-------5-----------------------------------------I
D-6-----5-----3-----2-----------------------------I
A-6-----3-----3-----2-----------------------------I
E-4-----------1-----0-----------------------------I

all you are to me

E-------------------------------------------------I
B-------------------------------------------------I
G-------------5(^*)---0---0-0-2-1-0---------------I
D-----6-----5-----------3---------------2---------I
A---6-----3---------3-----------------2-----------I
E-4---------------1-----------------0-------------I(x2)

is meat
now pass the flask

Great song. Easy to play. I used EADGBE tune. I think you should choose CGCFAD, cause Deftones use that.