Deftones - Pink Maggit Chords & Tabs

 

Pink Maggit Chords & Tabs

Deftones Chords & Tabs

Version: 4 Type: Tab 0 ratings
1 star 2 stars 3 stars 4 stars 5 stars
comments

Pink Maggit Tab

   
Deftones	Pink Maggit
C-G-C-F-A-D

Intro
|--------------------------------------------|
|--------------------------------------------|
|------------------------------------------3-|
|------8----------10-----------7-------------|
|---8-----------8-----------5-----------1----|
|-8-----------0-----------5-----------1------|

Couplet
|------------------------------------------------------|
|------------------------------------------------------|
|----------------------------------------------------3-|
|------8----------10~b~r-------7—5h7-7--8--7-4---------|
|---8--------s--8-----------5---------------------1----|
|-8---------ss0-----------5---------------------1------|

Thème
|------------------------------------------------------------------|
|------------------------------------------------------------------|
|-1010101010101010101010101010101010101010101010101010101010101010-|
|--8-8-8-8-8-8-8-8-8-8-8-8-8-8-8-810101010101010101010101010101010-|
|--8-8-8-8-8-8-8-8-8-8-8-8-8-8-8-8-8-8-8-8-8-8-8-8-8-8-8-8-8-8-8-8-|
|--8-8-8-8-8-8-8-8-8-8-8-8-8-8-8-8-0-0-0-0-0-0-0-0-0-0-0-0-0-0-0-0-|

|------------------------------------------------------------------|
|------------------------------------------------------------------|
|--7-7-7-7-7-7-7-7-7-7-7-7-7-7-7-7-7-7-7-7-7-7-7-7-7-7-7-7-7-7-7-7-|
|--5-5-5-5-5-5-5-5-5-5-5-5-5-5-5-5-5-4-4-4-4-4-4-4-4-4-4-4-4-4-4-4-|
|--5-5-5-5-5-5-5-5-5-5-5-5-5-5-5-5-5-4-4-4-4-4-4-4-4-4-4-4-4-4-4-4-|
|--5-5-5-5-5-5-5-5-5-5-5-5-5-5-5-5-5-4-4-4-4-4-4-4-4-4-4-4-4-4-4-4-|

Variante
|------------------------------------------------------------------|
|------------------------------------------------------------------|
|-1010101010101010101010101010101010101010101010101010101010101010-|
|--8-8-8-8-8-8-8-8-8-8-8-8-8-8-8-8-0-0-0-0-0-0-0-0-0-0-0-0-0-0-0-0-|
|--8-8-8-8-8-8-8-8-8-8-8-8-8-8-8-8-0-0-0-0-0-0-0-0-0-0-0-0-0-0-0-0-|
|--8-8-8-8-8-8-8-8-8-8-8-8-8-8-8-8-0-0-0-0-0-0-0-0-0-0-0-0-0-0-0-0-|
[ Tab from: http://www.guitartabs.cc/tabs/d/deftones/pink_maggit_tab_ver_4.html ]
|---------------------------------------------------------------------|
|---------------------------------------------------------------------|
|-10/121212121212121212121212121212-12/14141414141414-14/1515151515~\-|
|---------------------------------------------------------------------|
|--8/101010101010101010101010101010-10/12121212121212-12/1313131313~\-|
|--0----0-0-0-0-0-0-0-0-0-0-0-0-0-0--0----0-0-0-0-0-0--0----0-0-0-0~--|

Variante
|------------------------------------------------------------------|
|------------------------------------------------------------------|
|-10101010101010101010101010101010101010101010101010-8-8-8-8101010-|
|--8-8-8-8-8-8-8-8-8-8-8-8-8-8-8-8-0-0-0-0-0-0-0-0-0-0-0-0-0-0-0-0-|
|--8-8-8-8-8-8-8-8-8-8-8-8-8-8-8-8-0-0-0-0-0-0-0-0-0-0-0-0-0-0-0-0-|
|--8-8-8-8-8-8-8-8-8-8-8-8-8-8-8-8-0-0-0-0-0-0-0-0-0-0-0-0-0-0-0-0-|

|--------------------------------------------------------------------|
|--------------------------------------------------------------------|
|-10/121212121212121212121212121212-12/14141414141414-14/1515151514~-|
|--------------------------------------------------------------------|
|--8/101010101010101010101010101010-10/12121212121212-12/1313131312~-|
|--0----0-0-0-0-0-0-0-0-0-0-0-0-0-0--0----0-0-0-0-0-0--0----0-0-0-0~-|

Jouer dans l'ordre : le thème 2x / 2x la variante / le thème 5x / 2x la variante / la seconde variante

Fade out...
|----------------------------------------------------------------------------------|
|----------------------------------------------------------------------------------|
|---10~~--------10~~---------7~~-------7-7~~---------------10~-----\7-7~-----------| baisser le volume
|----8~~---------8~~---------5~~-------5-4~~------8~--------0~--------5~--------4~-| pour les 4
|--s-8~~-------s-8~~-------s-5~~-------5-4~~------8~--------0~--------5~--------4~-| derniers accords
|-ss-8~~------ss-0~~------ss-5~~-------5-4~~------8~--------0~--------5~--------4~-|

Outro (joué "feeling")
|------------------------------------------------------------------------|
|------------------------------------------------------------------------|
|----------------------------------------------------------------------3-|
|------8----------10~b(12)~12121212-12-12~-------7—5h7-7--8--7-4---------|
|---8--------s--8-----------------------------5---------------------1----|
|-8---------ss0-----------------------------5---------------------1------|

terminer le morceau sur quelques effets de frottements de corde
Comments