Deftones - Pink Maggit Chords & Tabs

 

Pink Maggit Chords & Tabs

Deftones Chords & Tabs

Version: 3 Type: Tab 0 ratings
1 star 2 stars 3 stars 4 stars 5 stars
comments

Pink Maggit Tab

No Special Tuning.
Pink Maggit
White Pony-Deftones
Tabbed by kyle hayes

Intro
E---------------------------
B---------------------------
G--------------3----0-------
D-----6-------5------------5
A---6--------3-----3------3-
E-4---------------1------3-
[ Tab from: http://www.guitartabs.cc/tabs/d/deftones/pink_maggit_tab_ver_3.html ]
repeat this alot, then some times he does this:
E---------------                    E-----------------
B---------------                    B-----------------
G-------------3-  then the new part G-----------------
D-----6-----5----                   D-----------------
A---6-----3-----                    A---3-5--3h5-6-5-2
E-4-------------                    E-1---------------

Chorus:

E-------------------------------
B-------------------------------
G-------------------------------
D----------5-5-5-5--------------
A-6-6-6-6--3-3-3-3--3-3-3-3--3p2
E-4-4-4-4-----------1-1-1-1--1p0

do that alot and your done. Any questions email me at lazyhaze69@hotmail.com
Comments