Deftones - Pink Maggit Chords & Tabs

 

Pink Maggit Chords & Tabs

Deftones Chords & Tabs

Version: 2 Type: Tab 0 ratings
1 star 2 stars 3 stars 4 stars 5 stars
comments

Pink Maggit Tab

Deftones,Pink Maggot.
 Tabbed by Marcus Kelley,ChinoSag@hotmail.com.
  
im putting this up because the first one is wrong and no one should play deftones wrong.

intro|------------------------------------------------
     |------------------------------------------------
     |------------------------------------------------
     |----8----------10^-------7-----5---7p7--8---7--4
     |--8---------8^---------5------------------------
     |8---------0---------5--------------------------- cont.  
     
     |------------------------------------------------
     |------------------------------------------------
     |------------------------------------------------
     |------3-----------------------------------------
     |---1--------------------------------------------
     |-1----------------------------------------------
[ Tab from: http://www.guitartabs.cc/tabs/d/deftones/pink_maggit_tab_ver_2.html ]
verse,played by stephan
     |------------------------------------------------
     |------------------------------------------------
     |-10--10-----------------------------------------
     |-8---0---5---4----------------------------------
     |-8---0---5---4----------------------------------
     |-8---0---5---4----------------------------------

Chino's Part
     |------------------------------------------------
     |------------------------------------------------
     |11/-12---121212---12---1212---1212---12---------
     |x---x----x-x-x----x----x-x----x-x----x----------
     |9/--10---101010---10---1010---1010---10---------
     |------------------------------------------------
cont.
     |------------------------------------------------
     |------------------------------------------------
     |14---141414---14/15---1515---15/14
     |x----x-x-x----x-/x----x-x----x-/x
     |12---121212---12/13---1313---13/12
     |------------------------------------------------


thats it,just get the rythym for stephans part(which isnt hard)and play it.
it is a very easy song.peace out 
:: Ultimate Guitar Archive :: 
http://www.ultimate-guitar.com 



Comments