Deftones - Passenger Chords & Tabs

 

Passenger Chords & Tabs

Deftones Chords & Tabs

Version: 3 Type: Tab 0 ratings
1 star 2 stars 3 stars 4 stars 5 stars
comments

Passenger Tab

   
Deftones	Passenger						
C-G-C-F-A-D

Thème (repris au premier refrain)
|-------------------------------------------------------------------------------------------------|
|-------------------------------------------------------------------------------------------------|
|-------------------------------------------------------------------------------------------------|
|----------------7----7-7----------------5----5-5----------------4----4-4----------------4----4-4-|
|-------------------------------------------------------------------------------------------------|
|-4---4-4---4-4-----4-----4---4-4---4-4-----4-----4---4-4---4-4-----4-----4---4-4---4-4-----4-----|

Couplet
|------------------------------------|
|------------------------------------|
|---------------------------------5*-|
|-----------5*---------------4*------|
|------4*----------------------------|
|-4*--------------------4*-----------|

Explosion
|----------------------------------------------------------------------------------------|
|----------------------------------------------------------------------------------------|
|-9--9--9--9--9--9--9--9--9--9--9--9--9--9--9--9-10~-9-9-910~-9-9-910~-9-9-910~----6~-6~-|
|--------------------------------------------------------------------------------0-5~-5~-|
|-7--7--7--7--7--7--7--7--7--7--7--7--7--7--7--7--8~-7-7-7-8~-7-7-7-8~-7-7-7-8~--0-5~-5~-|
|-0--0--0--0--0--0--0--0--0--0--0--0--0--0--0--0--0~-0-0-0-0~-0-0-0-0~-0-0-0-0~--0-5~-5~-|
[ Tab from: http://www.guitartabs.cc/tabs/d/deftones/passenger_tab_ver_3.html ]
Second refrain
|------------------------------------------------------------------------------------------------|
|------------------------------------------------------------------------------------------------|
|-6---6-6---6-6--6----6~--6---6-6---6-6--6----6~--6---6-6---6-6--6----6~--6---6-6---6-6--6----6~-|
|-4---4-4---4-4--7----7~--4---4-4---4-4--5----5~--4---4-4---4-4--4----4~--4---4-4---4-4--4----4~-|
|-4---4-4---4-4-----------4---4-4---4-4-----------4---4-4---4-4-----------4---4-4---4-4----------|
|-4---4-4---4-4-----4-----4---4-4---4-4-----4-----4---4-4---4-4-----4-----4---4-4---4-4-----4----|

Passage saccadé
|-------------------------------------------------------------------------------|
|-------------------------------------------------------------------------------|
|-6~--6~--6-6-------------------------------6~--6~--6-6----------6~--6~--6-6----|
|-4~--4~--4-4----------7~--7~--7-7----------5~--5~--5-5----------4~--4~--4-4----|
|-4~--4~--4-4----------4~--4~--4-4----------4~--4~--4-4----------4~--4~--4-4----|
|-4~--4~--4-4----------4~--4~--4-4----------4~--4~--4-4----------4~--4~--4-4-3~-|

|---------------------------------------------------------------------------------|
|---------------------------------------------------------------------------------|
|---6~--6~--6------------6~--6~--6------------6~--6~--6------------6~--6~--6-6----| 2x
|-0-4~--4~--4-5*~~~----0-4~--4~--4-4*~~~----0-4~--4~--4-2,4*~~~--0-4~--4~--4-4----| 
|-0-4~--4~--4-5*~~~----0-4~--4~--4-4*~~~----0-4~--4~--4-2,4*~~~--0-4~--4~--4-4----|
|-0-4~--4~--4-5*~~~----0-4~--4~--4-4*~~~----0-4~--4~--4-2,4*~~~--0-4~--4~--4-4-3~-|


Passage précédant le final
|--------------------------------------|
|--------------------------------------|
|--------------------------------------|
|-----------5*-------------------------|
|------4*----------------------4*---5*-|
|-4*----------------------4*-----------|

Final
|----------------------------------------------------------------------------------------------------|
|----------------------------------------------------------------------------------------------------|
|-9--9--9--9--9--9--9--9--9--9--9--9--9--9--9--9-10~-9-9-910~-9-9-910~-9-9-910~-9-9-910-10-10-10--6~-|
|-------------------------------------------------------------------------------------------------5~-|
|-7--7--7--7--7--7--7--7--7--7--7--7--7--7--7--7--8~-7-7-7-8~-7-7-7-8~-7-7-7-8~-7-7-7-8--8--8--8--5~-|
|-0--0--0--0--0--0--0--0--0--0--0--0--0--0--0--0--0~-0-0-0-0~-0-0-0-0~-0-0-0-0~-0-0-0-0--0--0--0--5~-|
											\___/
										dernière fois

terminer le morceau sur un scratche montant sur les premières cordes.
Comments