Deftones - Passenger Chords & Tabs

 

Passenger Chords & Tabs

Deftones Chords & Tabs

Version: 1 Type: Tab 0 ratings
1 star 2 stars 3 stars 4 stars 5 stars
comments

Passenger Tab

 artists:  Deftones featuring Maynard of Tool
 Song: Passenger
 Tabbed by Cameron Oren

 This song is one of the Deftones best songs ever. Here's all of the
 parts and is all straight from the deftones. Exactly 100% how they 
 play it.Listen to the song for the timming. enjoy.  

 They really want you to tune it to d,a,f,c,g,c but just drop the D.
 It does not make that much difference.

Intro:
 |--------------------------------------------------------------
 |--------------------------------------------------------------
 |--------------------------------------------------------------
 |--------------7--7-7------------5--5-5-------------4--4-4-----
 |--------------------------------------------------------------
 |--4-4-4---4-4---4---4-4-4---4-4---4----4-4-4---4-4---4---4-4-4

 ---------------|
 ---------------|
 ---------------|
 -------4---4-4-|        REPEAT
 ---------------|
 ---4-4---4-----|
 
 riff 1
"here.........I lay, still and breathless,..........just like always"
[ Tab from: http://www.guitartabs.cc/tabs/d/deftones/passenger_tab.html ]
 |-------------------------------------------------------------------|
 |-------------------------------------------------------------------|
 |-------------------------------------------------------------------|
 |----------------------5---------------------------------------5----|
 |--------------4--------------------------------------4-------------|
 |-----4-------------------------------------4-----------------------|
                       --------Repeat---------
 
 riff 2
     "....ddddrrrrrrriiiiivvvvvvve.......ffaaasssstttteeerrrr!!!!!!"
 
 |------------------------------------------------------------------
 |------------------------------------------------------------------
 |--9-9-9-9-9-9-9-9-9-9-9-9-9-9-9-9---10--9-9---10---9-9-10-9-9-9-9-
 |------------------------------------------------------------------
 |--7-7-7-7-7-7-7-7-7-7-7-7-7-7-7-7----8--7-7----8---7-7--8-7-7-7-7-
 |--0-0-0-0-0-0-0-0-0-0-0-0-0-0-0-0----0--0-0----0---0-0--0-0-0-0-0-

 ----------------|
 ----------------|
 --10-9--6--6----|
 --------5--5----|
 ---8-7--5--5----|
 ---0-0--5--5----|

 back to riff 1
 then back to riff 2

 riff 3

    "....Roll the window down, this cool night air is curious...."

 |-------------------------------------------------------------------
 |-------------------------------------------------------------------
 |--6-6-6-6----------------------------------------------------------
 |--4-4-4-4----7-7-7-7----5-5-5-5----4-4-4-4------4-4-4--5---4-4-4--4
 |--4-4-4-4----4-4-4-4----4-4-4-4----4-4-4-4------4-4-4------4-4-4---
 |--4-4-4-4----4-4-4-4----4-4-4-4----4-4-4-4--3---4-4-4------4-4-4---


 "...go and go just drive me home and back again."

 -------------------------------------------------------------------|
 -------------------------------------------------------------------|
 ------------------------------------------------------5------------|
 -4-4-4--3---4-4-4-4------4-4-4--5---4-4-4--4---4-4-4--5---4-4-4-4--|
 -4-4-4--3---4-4-4-4------4-4-4--5---4-4-4--4---4-4-4------4-4-4-4--|
 -4-4-4--3---4-4-4-4--3---4-4-4------4-4-4------4-4-4------4-4-4-4-3|

 back to riff 1 and add 4..4..7 after the last 4...4...5
 then back to riff 2 and play that twice and add |-7-----------6-|
                                                D|-------------5-|
                                                A|-5--5--5--5--5-|at the
                                                D|-0--0--0--0--5-|end

 Outro:

 |--------21--22--21--------21--22--21---|
 |---19----------------22----------------|
 |---------------------------------------|    play 2x
 |---------------------------------------|
 |---------------------------------------|
 |---------------------------------------|


 That's all there is. It's pretty easy.
Comments