Deftones - Passenger Chords & Tabs

 

Passenger Chords & Tabs

Deftones Chords & Tabs

Version: 2 Type: Bass Tab 0 ratings
1 star 2 stars 3 stars 4 stars 5 stars
comments

Passenger Bass Tab

   
Song: Passenger
Artist: Deftones f/ Maynard from Tool
Album: White Pony
Tuning: Low to high: CGCF
Tabbed by: Mark Buchner

Main Riff:

F|--------------------------------------------------------------|
C|--------7---7-7--------5---5-5--------4---4-4--------4---4-4--|
G|--------------------------------------------------------------|
C|-4--4-4---4-----4--4-4---4-----4--4-4---4-----4--4-4---4------|

Mellow Riff:

F|--------------------|
C|--------------------|
G|--------------------|
C|-4---4/7---7\2---5--|

Prechorus:

F|-----------------------------------------------------------|
C|-----------------------------------------------------------|
G|-----------------------------------------------------------|
C|-2--2-2-2--2-2-2--2-2-2--2-2-3--2-3--2-3--2-3--2-3--2-3-3--|
[ Tab from: http://www.guitartabs.cc/tabs/d/deftones/passenger_btab_ver_2.html ]
Bridge (it's not really a bridge, but I'll call it that anyway):
PART A
F|----------------------------------------
C|----------------------------------------
G|----------------------------------------
C|-4-4-4-4--4-4-4-4--4-4-4-4--4-4-4-4-3---
PART B
F|----------------------------------------
C|----------------------------------------
G|----------------------------------------
C|-4-4-4---4-4-4---4-4-4---4-4-4-3--------

Ending:
F|--------------------------------------------------
C|--------------------------------------------------
G|--------------------------------------------------
C|-2--2-2-2--2-2-2--2-2-2--2-2-3-2-3-2-3-2-3-2-3-3--

F|---------------------------------------------------|
C|---------------------------------------------------|
G|---------------------------------------------------|
C|-2--2-2-2--2-2-2--2-2-2-2-2-3-2-3-2-3-2-3-2-3-3-5--|

Song order:
Main Riff x4 (start playing when Chino begins to sing)
Mellow Riff x3
Prechorus x1
Main Riff x4
Mellow Riff x4
Prechorus x1
Main Riff x4
Bridge PART A x1
Bridge PART B x2
Mellow Riff x8
Ending x1

That's It! Now you can play the best song on the album :)
Comments