Deftones - One Weak Chords & Tabs

 

One Weak Chords & Tabs

Deftones Chords & Tabs

Version: 3 Type: Tab 0 ratings
1 star 2 stars 3 stars 4 stars 5 stars
comments

One Weak Tab

   
Deftones	One Weak
E-A-D-G-B-E

Couplet
|-------------------------------------------------------|
|-------------------------------------------------------|
|-------------------------------------------------------|
|-------------------------------------------------------|
|-----0~------0~------0~------0~------0~~~~~~~~------0~-|
|-0-2-2~--0-2-2~--0-2-2~--0-2-3~--0-2-2~~~~~~~~--0-2-3~-|
  ...     ...     ...     ...     ...            ...
  \____________________________/  \___________________/
		 8x                          4x

|----------------------------------------------------------------|
|----------------------------------------------------------------|
|----------------------------------------------------------------|
|----------------------------------------------------------------|
|-----0~------0~------0~------0~------0~------0~------0~--0~--0~-|
|-0-2-2~--0-2-2~--0-2-2~--0-2-3~--0-2-2~--0-2-2~--0-2-2~0-2-0-3~-|
  ...     ...     ...     ...
  \____________________________/   3x 

Refrain
|-------------------0~~----------------------------------|
|-------------------0~~----------------------------------|
|-------------------0~~----------------------------------|
|-6-6---6-6---2-2~~--------------------------------------|
|-4-4---4-6---2-2~~------4/5-5-5-4-4-4-4-4-7-7-7-5-5-5-5-|
|---------4---0-0~~------2/3-3-3-2-2-2-2-2-5-5-5-3-3-3-3-|

Thème Heavy
|---------------------------------------|
|-5*5*----------------------------------|
|-5*5*----------------------------------|
|-5*5*----4-4---4-4---4-4---4-------4---|
|---------4-4---4-4---4-4---4-----------|
|-------0-2-2-0-2-2-0-2-2-0-2-0-2-3---3-|
 \___/  intro
[ Tab from: http://www.guitartabs.cc/tabs/d/deftones/one_weak_tab_ver_3.html ]
Pont vers le final
|----------------------------------------------|
|----------------------------------------------|
|----------------------------------------------|
|-6-6---6-6---2-2~~~~~~~~-2,6*2,6*2,6*2,6*2,6*-|
|-4-4---4-6---2-2~~~~~~~~-2,6*2,6*2,6*2,6*2,6*-|
|---------4---0-0~~~~~~~~-2,6*2,6*2,6*2,6*2,6*-|

Final
|----------------------------------------------------------------|
|----------------------------------------------------------------|
|----------------------------------------------------------------| 2x
|-4-4-4-2-2-2-4-4-4-2-2-2-4-5-5~--4-4-4-2-2-2-4-4-4-2-2-2-4-4-5~-|
|-4-4-4-2-2-2-4-4-4-2-2-2-4-5-5~--4-4-4-2-2-2-4-4-4-2-2-2-4-4-5~-|
|-2-2-2-0-0-0-2-2-2-0-0-0-2-3-3~--2-2-2-0-0-0-2-2-2-0-0-0-2-2-3~-|

|-----------------------------------------------------------------------------|
|-----------------------------------------------------------------------------|
|-----------------------------------------------------------------------------| 2x
|-4-4-4-2-2-2-4-4-4-2-2-2-2,6*2,6*2,6*2,6*---4-4-4-2-2-2-4-4-4-2-2-2-3*3*3*3*-|
|-4-4-4-2-2-2-4-4-4-2-2-2-2,6*2,6*2,6*2,6*---4-4-4-2-2-2-4-4-4-2-2-2-3*3*3*3*-|
|-2-2-2-0-0-0-2-2-2-0-0-0-2,6*2,6*2,6*2,6*---2-2-2-0-0-0-2-2-2-0-0-0-3*3*3*3*-|

|-----------------------------------------------------------------------------|
|------------------------------------------------------------------------0~~~-|
|------------------------------------------------------------------------3b4~-|
|-4-4-4-2-2-2-4-4-4-2-2-2-2,6*2,6*2,6*2,6*---4-4-4-2-2-2-4-4-4-2-2-2-4-4------|
|-4-4-4-2-2-2-4-4-4-2-2-2-2,6*2,6*2,6*2,6*---4-4-4-2-2-2-4-4-4-2-2-2-4-4------|
|-2-2-2-0-0-0-2-2-2-0-0-0-2,6*2,6*2,6*2,6*---2-2-2-0-0-0-2-2-2-0-0-0-2-2------|

|------------------------------------------------------------------------------|
|------------------------------------------------------------------------------|
|------------------------------------------------------------------------------|
|-4-4-4-2-2-2-4-4-4-2-2-2-2,6*2,6*2,6*2,6*---4-4-4-2-2-2-4-4-4-2-2-2-4---5~~~~-|
|-4-4-4-2-2-2-4-4-4-2-2-2-2,6*2,6*2,6*2,6*---4-4-4-2-2-2-4-4-4-2-2-2-4---5~~~~-|
|-2-2-2-0-0-0-2-2-2-0-0-0-2,6*2,6*2,6*2,6*---2-2-2-0-0-0-2-2-2-0-0-0-2-0-3~~~~-|
Comments