Deftones - Nosebleed Chords & Tabs

 

Nosebleed Chords & Tabs

Deftones Chords & Tabs

Version: 1 Type: Bass Tab 0 ratings
1 star 2 stars 3 stars 4 stars 5 stars
comments

Nosebleed Bass Tab

   
Artist: Deftones
Title: Nosebleed
Album: Adrenaline
Tuning: Standard (EADG)
Tabbed by: Mark Buchner

The previous tab wasn't completely right.

^=bend  ~~~~=let ring

Main Riff:

G|---------------------------||
D|---------------------------||
A|--------4-------4----------||
E|-5-4--5---5-4-5---4-2-2-2--||  x8

Verse Riff:

G|-----------||
D|-----------||
A|-----------||
E|-3-3--3-3--||  x8

Play Main Riff x8

Play Verse Riff x8

Play Main Riff x8

Part Before Bridge:

G|-------------------||
D|-------------------||
A|-------------------||
E|-2-2-2~~~~~~~~~~~~~||  x1

Bridge:
[ Tab from: http://www.guitartabs.cc/tabs/d/deftones/nosebleed_btab.html ]
Part A:
G|------------------------------||
D|------------------------------||
A|-3-3-3------------------------||
E|-------1-1-1-0--0-0-0-0-0--0--||   x16

Part B:
G|---------------------------------||
D|---------------------------------||
A|-3-3-3-------2-2-2-2-2-2-2-2-2-2-||
E|-------1-1-1---------------------||   x4

Play Part A of Bridge x8

Play Part B of Bridge x4

Part C:
G|----------------------|------------------------||Play this
D|----------------------|------------------------||part pretty
A|----------------------|------------------------||softly
E|-3--3-3--3--3-3--3^-4-|-3--3-3--3--3-3--3-4-1--||  x6

G|----||
D|----||
A|----||
E|-3--||   x1

Play Main Riff x8

That's it!

Visit my band's site at geocities.com/morphallaxis2001

Comments