Deftones - Needles And Pins Chords & Tabs

 

Needles And Pins Chords & Tabs

Deftones Chords & Tabs

Version: 5 Type: Tab 0 ratings
1 star 2 stars 3 stars 4 stars 5 stars
comments

Needles And Pins Tab

   
Deftones	Needles and Pins
Gb-Db-Gb-Cb-Fb-Ab-Db

Couplet
|-----------------------------------|
|-----------------------------------|
|-----------------------------------|
|-----------------------------------|
|----11----11----11----11-----11----|
|-------9-----9-----9-----9------9\-|
|-0~------0-----0-----0-----0-------|
    \_______________________/
             refrain

Refrain
|-----------------------------|
|-----------------------------|
|-----------------------------|
|-6-6-6-6-2-2-2~--7-7-7-7-7~~-|
|-6-6-6-6-2-2-2~--7-7-7-7-7~~-|
|-4-4-4-4-0-0-0~--5-5-5-5-5~~-|
|-----------------------------|
[ Tab from: http://www.guitartabs.cc/tabs/d/deftones/needles_and_pins_tab_ver_5.html ]
Passage à deux voix
|----------------------------------------------------------------------|
|----------------------------------------------------------------------|
|----------------------------------------------------------------------|
|----11~---11~--11~--1111~--------------11~---11~--11~--1111~----------|
|----11~---11~--11~--1111~---1111-------11~---11~--11~--1111~---1111---|
|-----9~----9~---9~---9-9~--------9------9~----9~---9~---9-9~--------9-|
|-0~------0----0------------0--------0-0-----0----0------------0-------|
  \_______________________________/
            première fois


Outro
|------------------------------------------------------------------------------------------------------------|
|------------------------------------------------------------------------------------------------------------|
|------------------------------------------------------------------------------------------------------------|
|------------------------------------------------------------------------------------------------------------|
|----11-----11----11----11----11----11-----11---11----11----11----11----11-----11---11----11----11----11-----|
|-------9------9-----9-----9-----9-----9-----------9-----9-----9-----9-----9-----------9-----9-----9-----9---|
|-0~------0------0-----0-----0-----0-----0----0------0-----0-----0-----0-----0----0------0-----0-----0-----0-|
            \____________________________/      \_____________________________/      \______________________/
                          
4x					   4x 			             fin
Comments