Deftones - Needles And Pins Chords & Tabs

 

Needles And Pins Chords & Tabs

Deftones Chords & Tabs

Version: 4 Type: Tab 0 ratings
1 star 2 stars 3 stars 4 stars 5 stars
comments

Needles And Pins Tab

   
-------------------------------------------------------------------------------
			     Needles and Pins - Deftones
-------------------------------------------------------------------------------

Tabbed by: Cross
6/15/03
Email:xcrossx1@yahoo.com

Note: This song is really played on a 5-String Bass if I could get my hands on
one I would tab that out but I can't so here you go.

Tuning:Here is Stephen's REAL tuning G#,C#,F#,B,E,G#,C#. Thats 4 1/2 steps down
from regular tuning and 2 1/2 steps down for 7 string. I play these on a regular
Guitar so I don't have the extra C# but it still sounds 99-100% correct.


Intro/verse 
P.M the C#
C#|--------------------------------------------------------------------------|
G#|--------------------------------------------------------------------------|
E |--------------------------------------------------------------------------|
B |---6--6--6--6--6--6--6--6--6--6--6--6--6--6--6--6--6--6--6--6--6----------|
F#|----4--4--4--4--4--4--4--4--4--4--4--4--4--4--4--4--4--4--4--4--4---------|
C#|-5---5--5--5--5--5--5--5--5--5--5--5--5--5--5--5--5--5--5--5--5-----------|
G#|--------------------------------------------------------------------------|

C#|--------------------------------------------------------------------------|
G#|--------------------------------------------------------------------------|
E |--------------------------------------------------------------------------|
B |---6--6--6--6--6--6--6--6--6--6--6--6--6--6--6--6--6--6--6--6--6----------|
F#|----4--4--4--4--4--4--4--4--4--4--4--4--4--4--4--4--4--4--4--4--4---------|
C#|-5---5--5--5--5--5--5--5--5--5--5--5--5--5--5--5--5--5--5--5--5-----------|
G#|--------------------------------------------------------------------------|

Chorus

C#|--------------------------------------------------------------------------|
G#|--------------------------------------------------------------------------|
E |--------------------------------------------------------------------------|
B |-6-6-6-6--2-2-2-2--7-7--7-7--7--------------------------------------------|
F#|-6-6-6-6--2-2-2-2--7-7--7-7--7--------------------------------------------|
C#|-4-4-4-4--0-0-0-0--5-5--5-5--5--------------------------------------------|
G#|--------------------------------------------------------------------------|

Breakdown
1:36
[ Tab from: http://www.guitartabs.cc/tabs/d/deftones/needles_and_pins_tab_ver_4.html ]
C#|--------------------------------------------------------------------------|
G#|--------------------------------------------------------------------------|
E |----6---6---6--6-6---6-6--------6---6---6--6-6---6-6----------------------|
B |----6---6---6--6-6---6-6-7------6---6---6--6-6---6-6-7--------------------|x1
F#|-0--4-0-4-0-4--4-4-0-4-4-7--0-0-4-0-4-0-4--4-4-0-4-4-7--------------------|
C#|-5----5---5--------5-----5--5-5---5---5--------5-----5--------------------|
G#|--------------------------------------------------------------------------|

then
C#|--------------------------------------------------------------------------|
G#|--------------------------------------------------------------------------|
E |-----6---6---6--6-6---6-6-------------------------------------------------|
B |-----6---6---6--6-6---6-6-7-----------------------------------------------|x6
F#|-0-0-4-0-4-0-4--4-4-0-4-4-7-----------------------------------------------|
C#|-5-5---5---5--------5-----5-----------------------------------------------|
G#|--------------------------------------------------------------------------|

Outro/verse 3

P.M the C#
C#|--------------------------------------------------------------------------|
G#|--------------------------------------------------------------------------|
E |--------------------------------------------------------------------------|
B |---6--6--6--6--6--6--6--6--6--6--6--6--6--6--6--6--6--6--6--6--6----------|
F#|----4--4--4--4--4--4--4--4--4--4--4--4--4--4--4--4--4--4--4--4--4---------|
C#|-5---5--5--5--5--5--5--5--5--5--5--5--5--5--5--5--5--5--5--5--5-----------|
G#|--------------------------------------------------------------------------|

P.M the C#
C#|--------------------------------------------------------------------------|
G#|--------------------------------------------------------------------------|
E |--------------------------------------------------------------------------|
B |-------6--6--6--6--6--6--6--6--6--6--6--6--6--6--6--6--6--6--6--6--6--6---|
F#|--------4--4--4--4--4--4--4--4--4--4--4--4--4--4--4--4--4--4--4--4--4--4--|
C#|-5--5-5--5--5--5--5--5--5--5--5--5--5--5--5--5--5--5--5--5--5--5--5--5----|
G#|--------------------------------------------------------------------------|
                                          
P.M the C#                              the song fades out on the last ones
C#|--------------------------------------------------------------------------|
G#|--------------------------------------------------------------------------|
E |--------------------------------------------------------------------------|
B |-------6--6--6--6--6--6--6--6--6--6--6--6--6--6--6--6--6--6--6--6--6--6---|
F#|--------4--4--4--4--4--4--4--4--4--4--4--4--4--4--4--4--4--4--4--4--4--4--|
C#|-5--5-5--5--5--5--5--5--5--5--5--5--5--5--5--5--5--5--5--5--5--5--5--5----|
G#|--------------------------------------------------------------------------|
song Structure:
Intro/verse x1
Chorus x4
Intro/verse x1
Breakdown 
Chorus x8
outro/verse 3 x1

| /  slide up
| \  slide down
| h  hammer-on
| p  pull-off
| ~  vibrato
| +  harmonic
| x  Mute note

===============================================================================
Comments