Deftones - Needles And Pins Chords & Tabs

 

Needles And Pins Chords & Tabs

Deftones Chords & Tabs

Version: 3 Type: Tab 0 ratings
1 star 2 stars 3 stars 4 stars 5 stars
comments

Needles And Pins Tab

   
Deftones
Album : Deftones

Por : cenif@hotmail.com

"NEEDLES & PINS"


Intro/verse 

Bb|--------------------------------------------------------------------------|
F#|--------------------------------------------------------------------------|
C#|---4--4--4--4--4--4--4--4--4--4--4--4--4--4--4--4--4--4--4--4--4----------|
G#|----2--2--2--2--2--2--2--2--2--2--2--2--2--2--2--2--2--2--2--2--2---------|
Eb|-3---3--3--3--3--3--3--3--3--3--3--3--3--3--3--3--3--3--3--3--3-----------|
G#|--------------------------------------------------------------------------|

Bb|--------------------------------------------------------------------------|
F#|--------------------------------------------------------------------------|
C#|--4--4--4--4--4--4--4--4--4--4--4--4--4--4--4--4--4--4--4--4--4--4--------|
G#|---2--2--2--2--2--2--2--2--2--2--2--2--2--2--2--2--2--2--2--2--2--2-------|
Eb|-3--3--3--3--3--3--3--3--3--3--3--3--3--3--3--3--3--3--3--3--3--3---------|
G#|--------------------------------------------------------------------------|

Chorus

Bb|--------------------------------------------------------------------------|
F#|--------------------------------------------------------------------------|
C#|--------------------------------------------------------------------------|
G#|-9-9-9-9--5-5-5-5--10-10--10-10-------------------------------------------|
Eb|-9-9-9-9--5-5-5-5--10-10--10-10-------------------------------------------|
G#|-9-9-9-9--5-5-5-5--10-10--10-10-------------------------------------------|

Breakdown
1:36
[ Tab from: http://www.guitartabs.cc/tabs/d/deftones/needles_and_pins_tab_ver_3.html ]
Bb|--------------------------------------------------------------------------|
F#|----4---4---4--4-4---4-4-0------4---4---4--4-4---4-4-0--------------------|
C#|----4---4---4--4-4---4-4-0------4---4---4--4-4---4-4-0--------------------|x1
G#|--------------------------------------------------------------------------|
Eb|-3----3---3--------3--------3-3---3---3--------3--------------------------|
G#|--------------------------------------------------------------------------|
then
Bb|--------------------------------------------------------------------------|
F#|-----4---4---4--4-4---4-4-0-----------------------------------------------|
C#|-----4---4---4--4-4---4-4-0-----------------------------------------------|x6
G#|--------------------------------------------------------------------------|
Eb|-3-3---3---3--------3-----------------------------------------------------|
G#|--------------------------------------------------------------------------|

Outro/verse 3

Bb|--------------------------------------------------------------------------|
F#|--------------------------------------------------------------------------|
C#|---4--4--4--4--4--4--4--4--4--4--4--4--4--4--4--4--4--4--4--4--4----------|
G#|----2--2--2--2--2--2--2--2--2--2--2--2--2--2--2--2--2--2--2--2--2---------|
Eb|-3---3--3--3--3--3--3--3--3--3--3--3--3--3--3--3--3--3--3--3--3-----------|
G#|--------------------------------------------------------------------------|

Bb|--------------------------------------------------------------------------|
F#|--------------------------------------------------------------------------|
C#|-------4--4--4--4--4--4--4--4--4--4--4--4--4--4--4--4--4--4--4--4--4--4---|
G#|--------2--2--2--2--2--2--2--2--2--2--2--2--2--2--2--2--2--2--2--2--2--2--|
Eb|-3--3-3--3--3--3--3--3--3--3--3--3--3--3--3--3--3--3--3--3--3--3--3--3----|
G#|--------------------------------------------------------------------------|
                                          the song fades out on the last ones
Bb|--------------------------------------------------------------------------|
F#|--------------------------------------------------------------------------|
C#|-------4--4--4--4--4--4--4--4--4--4--4--4--4--4--4--4--4--4--4--4--4--4---|
G#|--------2--2--2--2--2--2--2--2--2--2--2--2--2--2--2--2--2--2--2--2--2--2--|
Eb|-3--3-3--3--3--3--3--3--3--3--3--3--3--3--3--3--3--3--3--3--3--3--3--3----|
G#|--------------------------------------------------------------------------|


arriba el metal putos!!!!!!!!!!1


song Structure:
Intro/verse x1
Chorus x4
Intro/verse x1
Breakdown 
Chorus x8
outro/verse 3 x1

| /  slide up
| \  slide down
| h  hammer-on
| p  pull-off
| ~  vibrato
| +  harmonic
| x  Mute note
Comments