Deftones - My Own Summer Chords & Tabs

 

My Own Summer Chords & Tabs

Deftones Chords & Tabs

Version: 1 Type: Tab 0 ratings
1 star 2 stars 3 stars 4 stars 5 stars
comments

My Own Summer Tab

   
This is my first tab correction ever, this is a legendary song, my own summer
by deftones, the internet is filled with tabs from this song that are just wrong, 
even the other ones that are in this page. my correction is only in the main riff.

if you dont believe me that is correct just try this(sing the riff):
na na na na na na  na na  na na     na na
1   2  3  4  5  6   7  8  9  10     11 12 

important: you beed Drop D tunnig for this song, deftones and weezer use
this tunning, so that's why deftones makes a lot of weezer covers.
to tune your guitar in drop D use a korg tunner and tune your guitar with
two flats, know you can make deftones and weezer covers ha!

 
Riff A                                                          8x

E||----------------------------------------------------------------------||
B||----------------------------------------------------------------------||
G||*--------------------------------------------------------------------*||
D||*--------------------------------------------------------------------*||
A||----------------------------------------------------------------------||
D||--0---11---12---0---11-\-8---------0---7-----0---8-------5-------5----||
beat:1   2     3   4    5   6         7    8    9   10      11      12

Ive plated the rest of the song and it's totally correct
      Riff B                                                      4x
E||-------------------------------------------------------------------||
B||-------------------------------------------------------------------||
G||*-----------------------------------------------------------------*||
D||*-0---7---8---0---8---5---0---5---0---5-/-7---0---8---4-------4---*||
A||--0---7---8---0---8---5---0---5---0---5-/-7---0---8---4-------4----||
D||--0---7---8---0---8---5---0---5---0---5-/-7---0---8---4-------4----||
     1       &       2       &       3       &       4       &

  play Riff A 8x

  play Riff B 4x

     Riff C
E||-------------------------------------------------------------------|
B||-------------------------------------------------------------------|
G||*-9---9---9---9---9---9---9---9---9---9---9---9---9---9---9---9----|
D||*-8---8---8---8---8---8---8---8---8---8---8---8---8---8---8---8----|
A||--8---8---8---8---8---8---8---8---8---8---8---8---8---8---8---8----|
D||--8---8---8---8---8---8---8---8---8---8---8---8---8---8---8---8----|
     1       &       2       &       3       &       4       &

E|------------------------------------------------------------------|
B|------------------------------------------------------------------|
G|-9---9---9---9---9---9---9---9---9---9---9---9---9---9---9---9----|
D|-8---8---8---8---8---8---8---8---8---8---8---8---8---8---8---8----|
A|-8---8---8---8---8---8---8---8---8---8---8---8---8---8---8---8----|
D|-8---8---8---8---8---8---8---8---8---8---8---8---8---8---8---8----|
   1       &       2       &       3       &       4       &

E|------------------------------------------------------------------||
B|------------------------------------------------------------------||
G|-----------------------------------------------------------------*||
D|-5---5---5---8---0-------5---5---5---8---8---0---0---------------*||
A|-5---5---5---8---0-------5---5---5---8---8---0---0----------------||
D|-5---5---5---8---0-------5---5---5---8---8---0---0----------------||
   1       &       2       &       3       &       4       &


   Let the D chord ring out for a additional 3 beats (for a total of 4)
   Drums then enter and play for 8 beats.

   Then the bass plays this   8x
G||---------------------------------------------------------------------------||
D||*-------------------------------------------------------------------------*||
A||*-------------------------------------------------------------------------*||
D||--5-/-12---12---12---12-\-11---11---11---11-\-8---8---8---8-\-5---5---5----||
     1        &         2         &         3        &       4       &
[ Tab from: http://www.guitartabs.cc/tabs/d/deftones/my_own_summer_tab.html ]
      Riff B                                                      8x
E||-------------------------------------------------------------------||
B||-------------------------------------------------------------------||
G||*-----------------------------------------------------------------*||
D||*-0---7---8---0---8---5---0---5---0---5-/-7---0---8---4-------4---*||
A||--0---7---8---0---8---5---0---5---0---5-/-7---0---8---4-------4----||
D||--0---7---8---0---8---5---0---5---0---5-/-7---0---8---4-------4----||
     1       &       2       &       3       &       4       &

E||-------------------------------------------------------------------|
B||-------------------------------------------------------------------|
G||*-9---9---9---9---9---9---9---9---9---9---9---9---9---9---9---9----|
D||*-8---8---8---8---8---8---8---8---8---8---8---8---8---8---8---8----|
A||--8---8---8---8---8---8---8---8---8---8---8---8---8---8---8---8----|
D||--8---8---8---8---8---8---8---8---8---8---8---8---8---8---8---8----|
     1       &       2       &       3       &       4       &

E|------------------------------------------------------------------|
B|------------------------------------------------------------------|
G|-9---9---9---9---9---9---9---9---9---9---9---9---9---9---9---9----|
D|-8---8---8---8---8---8---8---8---8---8---8---8---8---8---8---8----|
A|-8---8---8---8---8---8---8---8---8---8---8---8---8---8---8---8----|
D|-8---8---8---8---8---8---8---8---8---8---8---8---8---8---8---8----|
   1       &       2       &       3       &       4       &

      1st ending
E|------------------------------------------------------------------||
B|------------------------------------------------------------------||
G|-----------------------------------------------------------------*||
D|-5---5---5---8---0-------5---5---5---8---8---0---0---------------*||
A|-5---5---5---8---0-------5---5---5---8---8---0---0----------------||
D|-5---5---5---8---0-------5---5---5---8---8---0---0----------------||
   1       &       2       &       3       &       4       &

      2nd ending
E|-------------------------------------------------0----------------|
B|-------------------------------------------------0----------------|
G|-------------------------------------------------0----------------|
D|-5---5---5---8---0-------5---5---5---8---8---0---0----------------|
A|-5---5---5---8---0-------5---5---5---8---8---0---0----------------|
D|-5---5---5---8---0-------5---5---5---8---8---0---0----------------|
   1       &       2       &       3       &       4       &


E|-------------------------------------------------0----------------|
B|-------------------------------------------------0----------------|
G|-------------------------------------------------0----------------|
D|-5---5---5---8---0-------5---5---5---8---8---0---0----------------|
A|-5---5---5---8---0-------5---5---5---8---8---0---0----------------|
D|-5---5---5---8---0-------5---5---5---8---8---0---0----------------|
   1       &       2       &       3       &       4       &

E|-------------------------------------------------0----------------|
B|-------------------------------------------------0----------------|
G|-------------------------------------------------0----------------|
D|-5---5---5---8---0-------5---5---5---8---8---0---0----------------|
A|-5---5---5---8---0-------5---5---5---8---8---0---0----------------|
D|-5---5---5---8---0-------5---5---5---8---8---0---0----------------|
   1       &       2       &       3       &       4       &

E|-------------------------------------------------0----------------|
B|-------------------------------------------------0----------------|
G|-------------------------------------------------0----------------|
D|-5---5---5---8---0-------5---5---5---8---8---0---0----------------|
A|-5---5---5---8---0-------5---5---5---8---8---0---0----------------|
D|-5---5---5---8---0-------5---5---5---8---8---0---0----------------|
   1       &       2       &       3       &       4       &

  Let the D chord ring out for an additional 8 beats.

  Then play Riff B 2x normal and 2x playing the same progression
  on the 6th string.  End on the 2nd to last F# chord (4th fret).

thats all, my name is juan algravez, enjoy the most amazing song ever. 
Comments