Deftones - My Own Summer Chords & Tabs

 

My Own Summer Chords & Tabs

Deftones Chords & Tabs

Version: 3 Type: Bass Tab 0 ratings
1 star 2 stars 3 stars 4 stars 5 stars
comments

My Own Summer Bass Tab

   
Here is MY OWN SUMMER by The DEFTONES

Drop E to D


       Start play at - "Hay You......
G------------------------------------------
D------------------------------------------    (Play about
A------------------------------------------       x5 - I think)
D--7-12-12-12-12-11-11-11-11-8-8-8-8-5-5-5-

[ Tab from: http://www.guitartabs.cc/tabs/d/deftones/my_own_summer_btab_ver_3.html ]
        "Shove it.....                      
G----------------------------------
D----------------------------------
A----------------------------------
D--0-7-8-0-8-5-0-5-0-5-7-0-8-4--4--


        "I think GOD..... 
G----------------------------------
D----------------------------------  (You might play
A----------------------------------      this part longer)
D--8-8-8-8-8-8-8-8-8-8-8-8-8-8-8-8-


D--5-5-5-8-0----5-5-5-8-8-0-0------


Theres all the parts of the song, I'm pretty sure you can figure waht
goes were when playing.

Comments