Deftones - Mx Chords & Tabs

 

Mx Chords & Tabs

Deftones Chords & Tabs

Version: 2 Type: Tab 0 ratings
1 star 2 stars 3 stars 4 stars 5 stars
comments

Mx Tab

   
Deftones	Mx							
Db-Ab-Db-Gb-Bb-eb

Intro
|---------------------------------------------------------------------------------------------|
|---------------------------------------------------------------------------------------------|
|---------------------------------------------------------------------------------------------|
|-1-0~--3-4~--1-0~--3-4~--1-0~--3-4~--3-1-1~--1-1-1~--1-0~--3-4~--1-0~--3-4~--1-0~--3-4~-4*~~-|
|-1-0~--3-4~--1-0~--3-4~--1-0~--3-4~--3-1-1~--1-1-1~--1-0~--3-4~--1-0~--3-4~--1-0~--3-4~-4*~~-|
|-1-0~--3-4~--1-0~--3-4~--1-0~--3-4~--3-1-1~--1-1-1~--1-0~--3-4~--1-0~--3-4~--1-0~--3-4~-4*~~-|

Couplet
|------------------------------------------------|
|------------------------------------------------|
|-6--------------7--------------7--------------7-|             
|-4--------------4--------------5--------------4-|
|-4--------------4--------------5--------------4-|
|-4--------------4--------------5--------------4-|

Couplet à deux voix							
le dernier couplet enchaîne les deux
|----------------------------------------------------------|	variantes
|---------5--------------5--------------5--------------5---|
|-6-----6---6----7-----7---7----7-----7---7----7-----7---7-|
|-4--------------4--------------5--------------4-----------|
|-4--------------4--------------5--------------4-----------|
|-4--------------4--------------5--------------4-----------|

Reprise thème
|-----------------------------------------|
|-----------------------------------------|
|-----------------------------------------|
|-1-0~--3-4~--1-0~--3-4~--1-0~--3-4~-4*~~-|
|-1-0~--3-4~--1-0~--3-4~--1-0~--3-4~------|
|-1-0~--3-4~--1-0~--3-4~--1-0~--3-4~------|
[ Tab from: http://www.guitartabs.cc/tabs/d/deftones/mx_tab_ver_2.html ]
Refrain
|-----------------------------------------------------------------|
|-7-7---7-7-7---7-7-7---7-7-7---7-7-7---7-7-7---7-7-8---8-812--12-|
|-----------------------------------------------------------------|
|-4-4---4-4-4---4-4-4---4-4-4---4-4-4---4-4-4---4-4-5---5-5-9---9-|
|-4-4---4-4-4---4-4-4---4-4-4---4-4-4---4-4-4---4-4-5---5-5-9---9-|
|-4-4---4-4-4---4-4-4---4-4-4---4-4-4---4-4-4---4-4-5---5-5-9---9-|

Chaque refrain est suivi de l'un de ces fills, 
|-----------||----------||----------| respectivement :
|-----------||----------||----------|
|-----------||----------||----------|
|-4*~~~~~~~-||----------||-0~~~~~~~-|
|-4*~~~~~~~-||----------||-0~~~~~~~-|
|-4*~~~~~~~-||-0~~~~~~~-||-0~~~~~~~-|

Pont
|---------------------------------------------------------------------------------------------------------|
|---------------------------------------------------------------------------------------------------------|
|---------------------------------------------------------------------------------------------------------|
|-1-0--3-4-4--1-0--3-4-4--1-0--3-4-4--3-1-1--1-1-1---1-0--3-4-4--1-0--3-4-4--1-0--3-4-4--3-1-1-5*4*4*4*4*-|
|-1-0--3-4-4--1-0--3-4-4--1-0--3-4-4--3-1-1--1-1-1---1-0--3-4-4--1-0--3-4-4--1-0--3-4-4--3-1-1-5*4*4*4*4*-|
|-1-0--3-4-4--1-0--3-4-4--1-0--3-4-4--3-1-1--1-1-1---1-0--3-4-4--1-0--3-4-4--1-0--3-4-4--3-1-1-5*4*4*4*4*-|

|-------------------------------------------------------------------------------------------|
|-------------------------------------------------------------------------------------------|
|-------------------------------------------------------------------------------------------|
|-1-0--3-4-4--1-0--3-4-4--1-0--3-4-4--3-1-1-1*1*1*1*1*--1-0--3-4---1-0--3-4---1-0--3-4---4*-|
|-1-0--3-4-4--1-0--3-4-4--1-0--3-4-4--3-1-1-1*1*1*1*1*--1-0--3-4---1-0--3-4---1-0--3-4---4*-|
|-1-0--3-4-4--1-0--3-4-4--1-0--3-4-4--3-1-1-1*1*1*1*1*--1-0--3-4---1-0--3-4---1-0--3-4---4*-|

Outro
|-----------------------------------------|
|-----------------------------------------|
|-----------------------------------------|
|-1-0~--3-4~--1-0~--3-4~--1-0~--3-4~--3-1-|
|-1-0~--3-4~--1-0~--3-4~--1-0~--3-4~--3-1-|
|-1-0~--3-4~--1-0~--3-4~--1-0~--3-4~--3-1-|
				      ...
Comments