Deftones - Mx Chords & Tabs

 

Mx Chords & Tabs

Deftones Chords & Tabs

Version: 1 Type: Bass Tab 0 ratings
1 star 2 stars 3 stars 4 stars 5 stars
comments

Mx Bass Tab

MX
Deftones
Around The Fur
Intro, Chorus, and bridge tabbed by James Copely ( jcopley18@hotmail.com )
Verse tabbed by John Mc Aneny ( deftonesMX311@hotmail.com )
Tuned down 1 whole step

Intro and chorus
F|------------------------------------------- 
C|------------------------------------------- 
G|------------------------------------------- 
D|-1-0--3-4--1-0--3-4-4--1-0--3-4--3-1-1-1-1- 
[ Tab from: http://www.guitartabs.cc/tabs/d/deftones/mx_btab.html ]
Verse
F|--------------------------------------------------
C|--------------------------------------------------
G|---------2----------------2----------------2------
D|-0-3-2-3---3-2-3--0-3-2-3---3-2-3--0-3-2-3---3-2-3

Bridge
G|------------------------------------------------------ 
D|------------------------------------------------------ 
A|------------------------------------------------------ 
D|-4-4--4-4-4--4-4-4--4-4-4--4-4-4--4-4-4--4-4-5--5-5-8- 

Comments