Deftones - Moana Chords & Tabs

 

Moana Chords & Tabs

Deftones Chords & Tabs

Version: 3 Type: Tab 0 ratings
1 star 2 stars 3 stars 4 stars 5 stars
comments

Moana Tab

   
Artist: Deftones
Song  : Moana
Album : Self Titled -2003-
===============

Tune (low to high): c#/g#/c#/f#/a#/d# 

I Know that Stef Uses a 7 strings but this is 6 and sound 100% correct.

Created by Picardi Simone   BeQuietAndDrive  

spiders82@hotmail.com

Intro (Clean) guitar 1.  Repeat 8 times
|------------------------------------------------------------------------------|
|------------------------------------------------------------------------------|
|-7-----7-------7-------7-----7-/-12-------12----------12----------12-------12-|
|-x-x-x-x-x-x-x-x-x-x-x-x-x-x-x-/--x--x--x--x--x--x--x--x--x--x--x--x--x--x--x-|
|-5-5-5-5-5-5-5-5-5-5-5-5-5-5-5-/-10-10-10-10-10-10-10-10-10-10-10-10-10-10-10-|
|-x-x-x-x-x-x-x-x-x-x-x-x-x-x-x-/--x--x--x--x--x--x--x--x--x--x--x--x--x--x--x-|

Intro (final part)(clean) guitar 1.  1 Times
|----------------------------------0-------|
|----------------------------------0--0--0-|
|-7-----7-------7-------7-----7-/-12-12-12-|
|-x-x-x-x-x-x-x-x-x-x-x-x-x-x-x-/--x--x--x-|
|-5-5-5-5-5-5-5-5-5-5-5-5-5-5-5-/-10-10-10-|
|-x-x-x-x-x-x-x-x-x-x-x-x-x-x-x-/--x--x--x-|

Intro - Guitar 2 (clean) play during the intro
|---------|
|---------|
|-------7-|
|8--8-----|
|---------|
|---------|
[ Tab from: http://www.guitartabs.cc/tabs/d/deftones/moana_tab_ver_3.html ]
Riff 1
Verse (Heavy Distortion and a bit of Chorus effector)Repeat 6 times.    | "Come!" (riff 1 end)1 times
|-0-0-0-0-0-0-0-0-0-0-/-------------------------------------------------| |-------|
|-0-x-0-0-x-0-x-0-0-x-/-------------------------------------------------| |-------|
|-7-7-7-7-7-7-7-7-7-7-/-12-12-12-12-12-12-12-12-12-12-12-12-12-12-12-12-| |-14-14-|
|-7-7-7-7-7-7-7-7-7-7-/--x--x--x--x--x--x--x--x--x--x--x--x--x--x--x--x-| |--x--x-|
|-5-5-5-5-5-5-5-5-5-5-/-10-10-10-10-10-10-10-10-10-10-10-10-10-10-10-10-| |-12-12-|
|-0-0-0-0-0-0-0-0-0-0-/-------------------------------------------------| |-------|

Riff2                                 Riff 2b  1 Times
Verse Pt.2    Repeat 2 times            
|---------------------------/------| |-0-0-0-0-0/0-0-0/0-0-0-0-0/0-0-0/0-0-0-0-0/0-0-0/0-0-0-0-0/0-0-0-|
|------------------0-0-0-0-0/0-0-0-| |-0-0-0-0-0/0-0-0/0-0-0-0-0/0-0-0/0-0-0-0-0/0-0-0/0-0-0-0-0/0-0-0-|
|------------------0-0-0-0-0/0-0-0-| |-0-0-0-0-0/0-0-0/0-0-0-0-0/0-0-0/0-0-0-0-0/0-0-0/0-0-0-0-0/0-0-0-|
|-9-9-9-9-9-9-9-9--7-7-7-5-5/8-8-8-| |-7-7-7-5-5/8-8-8/7-7-7-5-5/8-8-8/7-7-7-5-5/8-8-8/7-7-7-5-5/8-8-8-|
|-9-9-9-9-9-9-9-9--7-7-7-5-5/8-8-8-| |-7-7-7-5-5/8-8-8/7-7-7-5-5/8-8-8/7-7-7-5-5/8-8-8/7-7-7-5-5/8-8-8-|
|-9-9-9-9-9-9-9-9--7-7-7-5-5/8-8-8-| |-7-7-7-5-5/8-8-8/7-7-7-5-5/8-8-8/7-7-7-5-5/8-8-8/7-7-7-5-5/8-8-8-|


-Now on this order, repeat this riffs:

-Riff 1

-Riff 1 end

-Riff 2

-Riff 2b

-Intro

-Intro Final Part

-Riff 1

-Riff 1 end

-Riff 2

_riff 2b

And this is the end

|-0\-------|
|-0\-------|
|-7\-------|Let ring
|-7\-------|
|-5\-------|
|-0\-------|
Comments