Deftones - Moana Chords & Tabs

 

Moana Chords & Tabs

Deftones Chords & Tabs

Version: 2 Type: Tab 0 ratings
1 star 2 stars 3 stars 4 stars 5 stars
comments

Moana Tab

   
Deftones	Moana
Ab-Db-Gb-Cb-Fb-Ab-Db

Intro / Pont
|---------------------------------------------------------------------|
|---------------------------------------------------------------------|
|--9-----9-------9-------9-----9~-\-14----14------14------14----14~-\-|
|---------------------------------------------------------------------|
|--7-7-7-7-7-7-7-7-7-7-7-7-7-7-7~-\-121212121212121212121212121212~-\-|
|--0-0-0-0-0-0-0-0-0-0-0-0-0-0-0~----0-0-0-0-0-0-0-0-0-0-0-0-0-0-0~---|
|---------------------------------------------------------------------|

|-----------------------------------0~----0~------0~-|
|----------------------------------------------------|
|-9-----9-------9-------9-----9~-\-14~---14~-----14~-|
|----------------------------------------------------| dernière fois
|-7-7-7-7-7-7-7-7-7-7-7-7-7-7-7~-\-12~---12~-----12~-|
|-0-0-0-0-0-0-0-0-0-0-0-0-0-0-0~---------------------|
|----------------------------------------------------|

Couplet (variantes dans les alternations sur la première partie des riffs)
|---0-0~--0~--0~----0-0~--------0~------------------------------------|
|---0-0~--0~--0~----0-0~--------0~--101010101010101010101010101010~-\-|
|---------------------------------------------------------------------| 4x
|-2~~---2~--2~--2-2~----2-2-2-2~--2--7-7-7-7-7-7-7-7-7-7-7-7-7-7-7~-\-|
|-2~~---2~--2~--2-2~----2-2-2-2~--2-----------------------------------|
|-0~~---0~--0~--0-0~----0-0-0-0~--0-----------------------------------|
|---------------------------------------------------------------------|
[ Tab from: http://www.guitartabs.cc/tabs/d/deftones/moana_tab_ver_2.html ]
|---0-0~--0~--0~----0-0~--------0~-------------------------------------|
|---0-0~--0~--0~----0-0~--------0~--10101010101010101010101010/1212~-\-|
|----------------------------------------------------------------------| ce riff est joué au dernier
|-2~~---2~--2~--2-2~----2-2-2-2~-----7-7-7-7-7-7-7-7-7-7-7-7-7/-9-9~-\-| refrain, les 2e et 4e fois
|-2~~---2~--2~--2-2~----2-2-2-2~---------------------------------------|
|-0~~---0~--0~--0-0~----0-0-0-0~---------------------------------------|
|----------------------------------------------------------------------|

|-0~--0~----0~----0~----0-----0~--------------------------------------|
|-0~--0~----0~----0~----0-----0~----101010101010101010101010101010~-\-|
|---------------------------------------------------------------------|
|-2~--2~--2~----2~----2~----2~-------7-7-7-7-7-7-7-7-7-7-7-7-7-7-7~-\-|
|-2~--2~--2~----2~----2~----2~----------------------------------------|
|-0~--0~--0~----0~----0~----0~----------------------------------------|
|---------------------------------------------------------------------|

|-0~--0~----0~----0~----0-----0~---------------------------------------|
|-0~--0~----0~----0~----0-----0~----10101010101010101010101010/1212~-\-|
|----------------------------------------------------------------------|
|-2~--2~--2~----2~----2~----2~-------7-7-7-7-7-7-7-7-7-7-7-7-7/-9-9~-\-|
|-2~--2~--2~----2~----2~----2~-----------------------------------------|
|-0~--0~--0~----0~----0~----0~-----------------------------------------|
|----------------------------------------------------------------------|

Refrain
|--------------------------------||----------------|
|-----------------0-0-0-0-0-0-0~-||-0-0-0-0-0-0-0~-|
|--------------------------------||----------------| riff joué à la suite du refrain,
|-----------------9-9-9-7-71010~-||-9-9-9-7-71010~-| plusieurs fois
|-4-4-4-4-4-4-4~-----------------||----------------|
|-4-4-4-4-4-4-4~--7-7-7-5-5-8-8~-||-7-7-7-5-5-8-8~-|
|-2-2-2-2-2-2-2~-----------------||----------------|

Outro
|----------------------------|
|----------------------------|
|----------------------------|
|-2~~------------------------|
|-2~~------------------------|
|-0~~-------------ssssss--s--|
|--------------sssssssssssss-|
Comments