Deftones - Minus Blindfold Chords & Tabs

 

Minus Blindfold Chords & Tabs

Deftones Chords & Tabs

Version: 4 Type: Tab 0 ratings
1 star 2 stars 3 stars 4 stars 5 stars
comments

Minus Blindfold Tab

   
Deftones	Minus Blindfold
E-A-D-G-B-E

Couplet
|------------------------------------------------------------------------------------|
|---0---0-----0---0-----0---0-----0---0-------0---0-----0---0-----0---0-----0--------|
|--0---0-0---0---0-0---0---0-0---0---0-0-----0---0-0---0---0-0---0---0-0---0---------|
|-2---4-----2---4-----2---4-----2---3-------2---4-----2---4-----2---4-----2----2-2-2-|
|------------------------------------------------------------------------------2-2-2-|
|------------------------------------------------------------------------------0-0-0-|
                                                                               .....
					\______________________________________/
                                                    dernière fois de l'intro
							 (et du dernier couplet)

Refrain
|-----------------------------------------------------------------------------------------------|
|-----------------------------------------------------------------------------------------------|
|--------------------------------------3~~------------------------------------------3~~--2~~~~~-|
|-0h4-4-2-2-4---5—-3*----0h4-4-2-2-4---5~~---0h4-4-2-2-4---5---8~-3~--0h4-4-2-2-4---5~~--2~~~~~-|
|-0h4-4-2-2-4---5---3*---0h4-4-2-2-4---5~~---0h4-4-2-2-4---5---8~-3~--0h4-4-2-2-4---5~~--2~~~~~-|
|-0h2-2-0-0-2---3----3*--0h2-2-0-0-2---3~~---0h2-2-0-0-2---3---6~-1~--0h2-2-0-0-2---3~~--0~~~~~-|
										\______/
								dernière fois
Fills : après l'intro	               après le 1er refrain
|------------|				|-----------------|
|------------|				|----------5*-----|
|------------|				|-----------------|
|-3*3*3*3*3*-|				|------------5*5*-|
|-3*3*3*3*3*-|				|-1-1-1-1---------|
|-3*3*3*3*3*-|				|-0-0-0-0---------|
                                                                           ..........
[ Tab from: http://www.guitartabs.cc/tabs/d/deftones/minus_blindfold_tab_ver_4.html ]
Passages Heavy
|--------------------------------------------------------------------|
|--------------------------------------------------------------------|
|--------------------------------------------------------------------|
|-2-2---2-2----------2-2---2-2----------2-2---2-2----------2-2---2-2-|
|-2-2---2-2-----2*---2-2---2-2-----2*---2-2---2-2-----2*---2-2---2-2-|
|-0-0---0-0--00------0-0---0-0--00------0-0---0-0--00------0-0---0-0-|
             ..                 ..                 ..

Pont
|------------------------------------------------------------------|
|------------------------------------------------------------------|
|------------------------------------------------------------------|
|-4444444444444444444444444444444444444444444444444444444444444444-|
|-4444444444444444444444444444444444444444444444444444444444444444-|
|-2222222222222222222222222222222222222222222222222222222222222222-|

|---------------------------------------------------------|
|---------------------------------------------------------|
|---------------------------------------------------------|
|---------------------------------------------------3~~~~-|
|-------1------------------1------------------1-----3~~~~-|
|-3-3-------1---1111-3-3-------1---1111-3-3-------1-1~~~~-|
  .................................................
					   \_______________/
                        				          dernière fois

Final
|-----------------------------------------------------------------------------|
|-----------------------------------------------------------------------------|
|-----------------------------------------------------------------------------|
|-2-2--2--2----------2-2--2--2----------2-2--2--2----------2-2--2--2----------|
|-2-2--2--2----2*----2-2--2--2----2*----2-2--2--2----2*----2-2--2--2----------|
|-0-0-00-00--00---00-0-0-00-00--00---00-0-0-00-00--00---00-0-0-00-00--0000000-|
      .  .   ..   ..     .  .   ..   ..     .  .   ..   ..     .  .   .......

|---------------------------------------------------------------------|
|---------------------------------------------------------------------|
|---------------------------------------------------------------------|
|-2-2--2--2----------2-2--2--2----------2-2--2--2----------2-2--------|
|-2-2--2--2----2*----2-2--2--2----2*~~--2-2--2--2----2*----1-1--3*-3*-|
|-0-0-00-00--00---00-0-0-00-00--00------0-0-00-00--00---00-0-0--------|
      .  .   ..   ..     .  .   ..          .  .   ..   .. . .
Comments