Deftones - Minus Blindfold Chords & Tabs

 

Minus Blindfold Chords & Tabs

Deftones Chords & Tabs

Version: 3 Type: Bass Tab 0 ratings
1 star 2 stars 3 stars 4 stars 5 stars
comments

Minus Blindfold Bass Tab

Verse
G|---------------|
D|---------------|
A|-------------2-|
E|-0-2-3-0-2-3---|

Chorus
G|---------------------------------|
D|---------------------------------|
A|--------------1------------------|
E|-0-2-2-0-2--3---3-2-0-2-2-0-2--3-|

Bridge
G|------------|
D|------------|
A|----1-------|
E|-3-3--1-111-|
[ Tab from: http://www.guitartabs.cc/tabs/d/deftones/minus_blindfold_btab_ver_3.html ]
Outro
G|----------|----------|----------|----------|
D|----------|----------|----------|----------|
A|----------|----------|----------|----------|
E|-0-0-00-0-|-0-0-00-0-|-0-0-00-0-|-0-0-00-0-|

I'm think the A on the chorus might be wrong. It could be something else or not played 
all since Steph is playing something similar over the bass.
Comments