Deftones - Minerva Chords & Tabs

 

Minerva Chords & Tabs

Deftones Chords & Tabs

Version: 7 Type: Tab 0 ratings
1 star 2 stars 3 stars 4 stars 5 stars
comments

Minerva Tab

   
Deftones	Minerva									    Guitare 1
Ab-Db-Gb-Cb-Fb-Ab-Db

Couplet
|------------------------------------------------------------------|
|------------------------------------------------------------------|
|-------------------------16--16--13131313131313131313131313131313-|
|------------------------------------------------------------------|
|-7-7-7-7-7-7-7-7-7-7-7-7-14--14--11111111111111111111111111111111-|
|-7-7-7-7-7-7-7-7-7-7-7-7--0-0-0-0-0-0-0-0-0-0-0-0-0-0-0-0-0-0-0-0-|
|-5-5-5-5-5-5-5-5-5-5-5-5------------------------------------------|

Refrain
|-----------------------------------------------------------------|
|-----------------------------------------------------------------|
|-----------------------------------------------------------------|
|-7-7-7-7-7-7-7-7-7-7-7-7-7-7-7-7---------------------------------| riff 1
|-7-7-7-7-7-7-7-7-7-7-7-7-7-7-7-7-9-9-9-9-9-9-9-9-9-9-9-9-9-9-9-9-|
|-5-5-5-5-5-5-5-5-5-5-5-5-5-5-5-5-9-9-9-9-9-9-9-9-9-9-9-9-9-9-9-9-|
|---------------------------------7-7-7-7-7-7-7-7-7-7-7-7-7-7-7-7-|

|-----------------------------------------------------------------|
|-----------------------------------------------------------------|
|-----------------------------------------------------------------|
|-----------------------------------------------------------------| riff 2
|-7-7-7-7-7-7-7-7-7-7-7-7-7-7-7-7-7-7-7-7-7-7-7-7-7-7-7-7-7-7-7-7-|
|-7-7-7-7-7-7-7-7-7-7-7-7-7-7-7-7-7-7-7-7-7-7-7-7-7-7-7-7-7-7-7-7-|
|-5-5-5-5-5-5-5-5-5-5-5-5-5-5-5-5-5-5-5-5-5-5-5-5-5-5-5-5-5-5-5-5-|

1er refrain : riff 1
2e refrain : riff 1 / riff 2 / riff 1
3e refrain : riff 1 / riff 2 / riff 1 / riff 2 / riff 1


Deftones	Minerva									    Guitare 2
Db-Ab-Db-Gb-Bb-eb

Intro / Pont (feeling)
|--------------0--0--0--0--0--0--0--0--0--0--0--0--0-------------------------------------------------|
|-------13-13-13-13-13-13-13-13-13-13-13-13-13-13-13----------13----------13-------13-13----13----13-|
|-14-14-14-14-14-14----------------------14----------14-14-14-14-14-14-14-14-14-14-14-14-14-14-14-14-|
|-12-------------------------------------------------12-12-12----12-12----12-12-12-12----12----12----|
|----------------------------------------------------------------------------------------------------|
|----------------------------------------------------------------------------------------------------|
[ Tab from: http://www.guitartabs.cc/tabs/d/deftones/minerva_tab_ver_7.html ]
Couplet
|------------------------------------------------------------------|
|------------------------------------------------------------------|
|-------------------------14--14--11111111111111111111111111111111-|
|-0-0-0-0-0-0-0-0-0-0-0-0------------------------------------------|
|-0-0-0-0-0-0-0-0-0-0-0-0-12--12---9-9-9-9-9-9-9-9-9-9-9-9-9-9-9-9-|
|-0-0-0-0-0-0-0-0-0-0-0-0--0-0-0-0-0-0-0-0-0-0-0-0-0-0-0-0-0-0-0-0-|

|----------------------------------0-0-0-0-0-0-0-0-0-0-0-0-0-0-0-0-|
|------------------------------------------------------------------|
|-------------------------14--14--11111111111111111111111111111111-| dernière fois avant le refrain
|-0-0-0-0-0-0-0-0-0-0-0-0------------------------------------------|
|-0-0-0-0-0-0-0-0-0-0-0-0-12--12---9-9-9-9-9-9-9-9-9-9-9-9-9-9-9-9-|
|-0-0-0-0-0-0-0-0-0-0-0-0--0-0-0-0-0-0-0-0-0-0-0-0-0-0-0-0-0-0-0-0-|

Refrain
|-----------------------------------------------------------------|
|-----------------------------------------------------------------|
|-7-7-7-7-7-7-7-7-7-7-7-7-7-7-7-7-4-4-4-4-4-4-4-4-4-4-4-4-4-4-4-4-| riff 1
|-5-5-5-5-5-5-5-5-5-5-5-5-5-5-5-5-2-2-2-2-2-2-2-2-2-2-2-2-2-2-2-2-|
|-5-5-5-5-5-5-5-5-5-5-5-5-5-5-5-5-2-2-2-2-2-2-2-2-2-2-2-2-2-2-2-2-|
|-5-5-5-5-5-5-5-5-5-5-5-5-5-5-5-5-2-2-2-2-2-2-2-2-2-2-2-2-2-2-2-2-|

|-----------------------------------------------------------------|
|-----------------------------------------------------------------|
|-----------------------------------------------------------------| riff 2
|-0-0-0-0-0-0-0-0-0-0-0-0-0-0-0-0-0-0-0-0-0-0-0-0-0-0-0-0-0-0-0-0-|
|-0-0-0-0-0-0-0-0-0-0-0-0-0-0-0-0-0-0-0-0-0-0-0-0-0-0-0-0-0-0-0-0-|
|-0-0-0-0-0-0-0-0-0-0-0-0-0-0-0-0-0-0-0-0-0-0-0-0-0-0-0-0-0-0-0-0-|

1er refrain : riff 1
2e refrain : riff 1 / riff 2 / riff 1
3e refrain : riff 1 / riff 2 / riff 1 / riff 2 / riff 1

Passage calme avant le second couplet
|------------0--0--0--0--0--0--0--0--0--0--0--0-|
|-----------13-13-13-13-13-13-13-13-13-13-13-13-|
|-14-14~----14-14-14-14-14-14-14-14-------14-14-|
|-12-12~----12----12-------12-12-12----------12-|
|-----------------------------------------------|
|-----------------------------------------------|

Outro (feeling)
|--------------0--0--0--0--0--0--0--0--0--0--0--0--0-----------------0--0--0--0--0--0--0--0--0--0--0--0-|
|-13-13-13-13-13-13-13-13-13-13-13-13-13-13-13-13-13-13-------------13-------13-------13-13----13-13----|
|-14-14-14-14----14-14-14-------14-14----14-14-14-14-14-14-14-14-14-14-------------------------------14-|
|-12-------------------------------------------------12-12----------------------------------------------|
|-------------------------------------------------------------------------------------------------------|
|--0~---------------------------------------------------------------------------------------------------|
     \________________________________________________/ \_____________________________________________/
                              2x                                              fin
Comments