Deftones - Mascara Chords & Tabs

 

Mascara Chords & Tabs

Deftones Chords & Tabs

Version: 5 Type: Tab 0 ratings
1 star 2 stars 3 stars 4 stars 5 stars
comments

Mascara Tab

Deftones

Tuning:DbAbDbGbBbEb
~=let ring


Intro + Verse
Eb-----------------------------------        ---------------------------|
Bb-----------------------------------        ---------------------------|
Gb-----------------------------------        ----------0~---------------|
Db--------0--------------------------        -------0-------------------|
Ab----0----0-------------------------        ---0----0------------------|
Db-1/8--4---4------------------------        1/8--4---4-----------------|

Chorus
Eb----------------------------------------------------------------------|
Bb----------------------------------------------------------------------|
Gb----------------------------------------------------------------------|
Db-88888888-------------------------------------------------------------|
Ab-88888888-000000000---------------------------------------------------|
Db-88888888-444244224---------------------------------------------------|
[ Tab from: http://www.guitartabs.cc/tabs/d/deftones/mascara_tab_ver_5.html ]
(Verse II)

(Chorus II)

Interlude
Eb----------------------------------------------------------------------|
Bb----------------------------------------------------------------------|
Gb----------------------------------------------------------------------|
Db-777777-----------777777-----------777777-----------88888888---4~-----|
Ab-555555-000000000-555555-000000000-555555-000000000-55555555---4~-----|
Db-000000-442222444-000000-442222444-000000-442222444-00000000-0-4~-----|

Ending
Eb----------------------------------------------------------------------|
Bb----------------------------------------------------------------------|
Gb----0-----------------------------------------------------------------|
Db-0~--0----------------------------------------------------------------|
Ab-0~---0---------------------------------------------------------------|
Db-0~----2~-------------------------------------------------------------|

This tab is about 99.9% correct.
Comments