Deftones - Mascara Chords & Tabs

 

Mascara Chords & Tabs

Deftones Chords & Tabs

Version: 3 Type: Tab 0 ratings
1 star 2 stars 3 stars 4 stars 5 stars
comments

Mascara Tab

tabbed by Jmh (random guy)
ok, ive looked up tons of tabs on this song 
and it never sounds right especially at the beginning.
so i figured it out my self and it sounds better.
listen to cd for changes.
Intro.
               
------------------------------------------------
------------------------------------------------
-----------------------------------------0------
-----------0------------------0-----------------
--------------0------------------0--------------
-5/6\5-2---------2---5/6\5-2--------2-----------

after long intro. repeat until singing stops.

-----------------------------
-----------------------------
-----------------------------
-----------------------------
--88888--444444-77777-22222--
--88888--444444-77777-22222--
[ Tab from: http://www.guitartabs.cc/tabs/d/deftones/mascara_tab_ver_3.html ]
next
play very lightly on the strings.
-------------------------------------
-------------------------------------
-------------------------------------
--------4--4444------4-4444----------
-----4-----4444----4---4444----------
--4--------------4-------------------
its too bad.............
your married.......to me    ending...
              -----------------------------------------
              -----------------------------------------
              --------------2-------2-------2----------
              -44444-0---------2-------2-------2-------
              -44444-0-------------2------2-------2----
              ----------1------------1-----1--------1--

Its best if you play the cd with the tab, to get the parts
right, i didnt do exact amount of times the part needed playing.

Boo yah peace out!
Comments