Deftones - Mascara Chords & Tabs

 

Mascara Chords & Tabs

Deftones Chords & Tabs

Version: 2 Type: Tab 0 ratings
1 star 2 stars 3 stars 4 stars 5 stars
comments

Mascara Tab

   
Deftones - Mascara
(Db Ab Db Gb Bb eb)

the other tab for this song was pretty bad..so heres the better version

Intro/Verse
eb---------------------------------------------|
Bb---------------------------------------------|
Gb----------------(0)--------------------------|
Db---------------------------------------------|
Ab---------5-0---------------------------------|
Db--/8-7-4-----4-------------------------------|
like 2 or 3 times in the song, the (0) will be played

Chorus
eb------------------------------------------|
Bb------------------------------------------|
Gb------------------------------------------|
Db--8-8-8-8-8-8-8-8-4-4-4-2-4-4-2-4---------|
Ab--8-8-8-8-8-8-8-8-4-4-4-2-4-4-2-4---------|
Db--8-8-8-8-8-8-8-8-4-4-4-2-4-4-2-4---------|
[ Tab from: http://www.guitartabs.cc/tabs/d/deftones/mascara_tab_ver_2.html ]
"well its too bad" part
eb------------------------------------------|
Bb------------------------------------------|
Gb------------------------------------------|
Db--7-7-7-7---------------------------------|
Ab--5-5-5-5--4-4-4-4------------------------|
Db-----------4-4-4-4------------------------|

Riff before transition to outro
eb--------------------------------------------|
Bb--------------------------------------------|
Gb--------------------------------------------|
Db--7-7-7-7-7-7-7-7----2----------------------|
Ab--5-5-5-5-5-5-5-5-4--2----------------------|
Db------------------4--2----------------------|

Outro
eb------------------------------------------|
Bb------------------------------------------|
Gb-1----------------------------------------|
Db---1--------------------------------------|
Ab-----1------------------------------------|
Db-------2----------------------------------|

t(-_-t) enjoy
Comments