Deftones - Mascara Chords & Tabs

 

Mascara Chords & Tabs

Deftones Chords & Tabs

Version: 1 Type: Tab 0 ratings
1 star 2 stars 3 stars 4 stars 5 stars
comments

Mascara Tab

   
#----------------------------------PLEASE NOTE--------------------------------#
#This file is the author's own work and represents their interpretation of the#
#song. You may only use this file for private study, scholarship, or research.#
#-----------------------------------------------------------------------------#

Date: Tue, 17 Mar 1998 16:56:47 +0000
From: Hayward 
Subject: REVISION: Mascara CRD by the Deftones


Date: Wednesday, 26 Nov 1997
From: Rickets81@aol.com
Subject: Tab

MASCARA
The Deftones
Around The Fur
Transcribed by Ben Dobias (Rickets81@aol.com)

Tuning: drop D and down 1/2
1:Eb	4:Db
2:Bb	5:Ab
3:Gb	6:Db

Intro and Verse:
1|------------------
2|------------------
3|------------------
4|------------------
5|-0/1\0---0-4-0----
6|---------------4--

Chorus:
1|-----------------------------------
2|-----------------------------------
3|-----------------------------------
4|--7-7-7-7-7-7-7-7-4-4-4-4-4-4-4-4--
5|--7-7-7-7-7-7-7-7-4-4-4-4-4-4-4-4--
6|--7-7-7-7-7-7-7-7-4-4-4-4-4-4-4-4--

Last chord before      First chord after
"It's too bad..."      "It's too bad..."
1|------               1|-----
2|------               2|-----
3|------               3|-----
4|--3---               4|--2--
5|--3---               5|--2--
6|--3---               6|--2--
[ Tab from: http://www.guitartabs.cc/tabs/d/deftones/mascara_tab.html ]
Then the rest is
1|------------
2|------------
3|--0---------
4|-----0------
5|-------0----
6|---------1--

Lyrics:
I feel soon
I will sink
into you
what do you think
cause theres still blood
in your hair
and i've got the bruise
of the year
but there's something about her
long shady eyes
I'm all about her
shade tonight
i hate
your tatoos
you have weak wrists
but I'll keep you well
but there's something about her
long shady eyes
I'm all about her
shade tonight
well its too bad
its too bad
its too bad
youre married
to me

17 Mar. 98
Mascara by the Deftones
Lifted indiscriminately from the LP 'Around the Fur'
Transcribed by Luke Hayward (d.hayward@virgin.net)

Here's a quick revision of the intro and verse riff:

Tuning: drop D and down 1/2
1:Eb	4:Db
2:Bb	5:Ab
3:Gb	6:Db

Intro and Verse:
1|--------------------    *play on fourth time through on intro
2|--------------------
3|--------------------
4|-----------------5*-
5|----------5---------
6|--7/8\7-4---8-4-----

also, I think the chorus begins with a barre chord on the eighth fret no, the
seventh

Chorus:
1|-----------------------------------
2|-----------------------------------
3|-----------------------------------
4|--8-8-8-8-8-8-8-8-4-4-4-4-4-4-4-4--
5|--8-8-8-8-8-8-8-8-4-4-4-4-4-4-4-4--
6|--8-8-8-8-8-8-8-8-4-4-4-4-4-4-4-4--

this was only a quick revision so don't nail me!
Luke.

Comments