Deftones - Linus Chords & Tabs

 

Linus Chords & Tabs

Deftones Chords & Tabs

Version: 1 Type: Bass Tab 0 ratings
1 star 2 stars 3 stars 4 stars 5 stars
comments

Linus Bass Tab

Deftones
Linus
???????
Tabbed by intrep (intrep@poop.com)
Standard Tuning

Yeah, this probably isn’t right but its how I play it and it sounds cool, I hope you think so too.
[ Tab from: http://www.guitartabs.cc/tabs/d/deftones/linus_btab.html ]
Intro 
G|--------------------- 
D|--------------------- 
A|---6--3-------------- 
E|-3------4/7--4/7----- 
 
Verse x3                           4th time
G|--------------------------------|---------------------------------
D|*------------------------------*|---------------------------------
A|*-------------5----------------*|--------------5------------------
E|3h4p3-3h4p3-3---3h4p3-3h4p3-3-5-|3h4p3-3h4p3-3---3h4p3-3h4p3--2--4

Chorus 
G|------------------------------------- 
D|------------------------------------- 
A|----------66666666-33333333---------- 
E|-33333333-------------------44444444- 

Bridge                     End 1   End 2
G|------------------------|-------|------|
D|------------------------|-------|------|
A|-----3-5-------------3-5|-------|------|
E|-3h4-----3h4-5-7-3h4----|3h4-2-4|2--4--|

Endings:1,2,1,2


Song Order:
Intro x1
Chorus x2
Verse x1
Chorus x2
Verse x1
Chorus x2
Bridge x4
Chorus x8
Bridge x4
Comments