Deftones - Like Linus Chords & Tabs

 

Like Linus Chords & Tabs

Deftones Chords & Tabs

Version: 1 Type: Tab 0 ratings
1 star 2 stars 3 stars 4 stars 5 stars
comments

Like Linus Tab

Deftones - demo - Like Linus

there were 2 versions of this song ive heard,
the second one is just slightly slower in tempo

Intro - starts 1 guitar [twice]
E|--------------------------------------|
B|--------------------------------------|
G|--------88888888--55555555------------|
D|--5555--88888888--55555555--66666666--|
A|--5555--66666666--33333333--66666666--|
E|--3333----------------------44444444--|


guitar 1 -> guitar #2 hits each chord once
E|------------------------------------------|
B|------------------------------------------|
G|------------88888888--55555555------------|
D|--55555555--88888888--55555555--66666666--|
A|--55555555--66666666--33333333--66666666--|
E|--33333333----------------------44444444--|

Chorus [2 guitars]  {the second guitar also does this during the intro i believe}
gtr 1
E|------------------------------------------|
B|------------------------------------------|
G|------------88888888--55555555------------|
D|--55555555--88888888--55555555--66666666--|
A|--55555555--66666666--33333333--66666666--|
E|--33333333----------------------44444444--|
[ Tab from: http://www.guitartabs.cc/tabs/d/deftones/like_linus_tab.html ]
gtr 2 {the second guitar also does this during the intro i believe}
E|---------------------------------------------------------|
B|---------------------------------------------------------|
G|--1212121212121212/1515151515151515/17/1212121212121212/-|
D|---x-x-x-x-x-x-x-x--x-x-x-x-x-x-x-x/-x--x-x-x-x-x-x-x-x--|
A|--1010101010101010/1313131313131313/15/1010101010101010/-|
E|---------------------------------------------------------|

E|------------|
B|------------|
G|--88888888--|
D|--xxxxxxxx--|
A|--66666666--|
E|------------|

Verse
E|-----------------------|
B|-----------------------|
G|----------6------------|
D|----------6---------6--|
A|----------4---------6--|
E|--3-3-333---3-3-333-4--|

end with:
E|-------|
B|-------|
G|-------|
D|--4-5--|
A|--4-5--|
E|--2-3--|

Repeat Chorus
Verse
Chorus

Bridge/Outro
E|----------------------------------------------|
B|----------------------------------------------|
G|----------------------------------------------|
D|--5-x-5-x-6--5-x-5-x-8--5-x-5-x-6--5-x-5-x-4--|
A|--5-x-5-x-6--5-x-5-x-x--5-x-5-x-6--5-x-5-x-4--|
E|--3-x-3-x-4--3-x-3-x-6--3-x-3-x-4--3-x-3-x-2--|

E|--------------------------------------------|
B|--------------------------------------------|
G|--------------------------------------------|
D|--5-x-5-x-6--5-x-5-x-8--5-x-5-x-6--3--4--5--|
A|--5-x-5-x-6--5-x-5-x-x--5-x-5-x-6--3--4--5--|
E|--3-x-3-x-4--3-x-3-x-6--3-x-3-x-4--1--2--3--|

after the bridge is the bass part, then another chorus, then the outro

verse and chorus riffs are all played four times each when they come up.

if im right, the part w/ only bass is the same as the main guitar riff, only played on a bass.
							    Matt
Comments