Deftones - Like Linus Chords & Tabs

 

Like Linus Chords & Tabs

Deftones Chords & Tabs

Version: 1 Type: Bass Tab 0 ratings
1 star 2 stars 3 stars 4 stars 5 stars
comments

Like Linus Bass Tab

date :  30/12/03

song: like linus
tabbed by : solo (juan)
from: Mexico (pachuca, Hgo.)

tuning : EADG


  Intro
-----------------------------------
-----------------------------------
------6--3-------------------------
---3--------4------4-4-4-4---------


  Main Riff
-----------------------------------------------------------------
-----------------------------------------------------------------
------------------------6-6-6-6-6-6-6-6-6--3-3-3-3-3-3-3-3-3-----
----3-3-3-3-3-3-3-3-3-3------------------------------------------


-------------------------------
-------------------------------
-------------------------------
----4-4-4-4-4-4-4-4------------
[ Tab from: http://www.guitartabs.cc/tabs/d/deftones/like_linus_btab.html ]
  Interlude
--------------------------------------------------------
--------------------------------------------------------
--------------4---------------------------4-------------
-----3-0-3-0------3-0-3-0---4----3-0-3-0-----3-0---2-3--


  Bridge
--------------------------------------------------------
--------------------------------------------------------
--------------------------------------------------------
----3-3-4--3-3-6--3-3-4--3-3-2--------------------------


--------------------------------------------------------
--------------------------------------------------------
--------------------------------------------------------
----3-3-4--3-3-6--3-3-4--1-2-3--------------------------


   Order
 
 Intro
 Main Riff  x2
 Interlude  x2
 Main riff  x2
 Interlude  x2
 Main riff  x2
 Bridge     x2
 Main riff  x2
 Main riff  x2  (drums and bass)
 Main riff  x4
 bridge     x2

 I think  all the song is whit slap is a good sound.
Comments