Deftones - Lifter Chords & Tabs

 

Lifter Chords & Tabs

Deftones Chords & Tabs

Version: 3 Type: Tab 0 ratings
1 star 2 stars 3 stars 4 stars 5 stars
comments

Lifter Tab

   
Deftones	Lifter
E-A-D-G-B-E

Couplet									     Fill
|-------------------------------------------------------------------|  |---------------------------------|
|-------------------------------------------------------------------|  |---------------------------------|
|-------------------------------------------------------------------|  |---------------------------------|
|-----------------------------6---------------------------------6---|  |-----------------------------6---|
|-7-7-7-7-7-7-7-7-578-8-8-8-8---5---7-7-7-7-7-7-7-7-8-8-8-8-8-8---5-|  |-7-7-7-7-7-7-7-7-8-8-8-8-8-8---5-|
|-0-0-0-0-0-0-0-0-000-0-0-0-0-0-0---0-0-0-0-0-0-0-0-0-0-0-0-0-0-0-0-|  |---------------------------------|
  ...............................   ...............................
  \_____________________________/   \_____________________________/
              riff 1                            riff 2

|-------------------------------------------------------------------|
|-------------------------------------------------------------------|
|-------------------------------------------------------------------|
|---------------------------6-6-------------------------------6-6---|
|-7-7-7-7-7-7-7-7-578-8-8-8-----5---7-7-7-7-7-7-7-7-8-8-8-8-8-----5-|
|-0-0-0-0-0-0-0-0-000-0-0-0-0-0-0---0-0-0-0-0-0-0-0-0-0-0-0-0-0-0-0-|
  ...............................   ...............................
  \_____________________________/   \_____________________________/
              riff 1b                           riff 2b

1er couplet : riff 1 / riff 2 / riff 1 2x / riff 2 5x / riff 1 / riff 2 / riff 1 / riff 1b 3x / riff 2b
2e couplet : fill / riff 2 5x / riff 1 / riff 2 / riff 1 / riff 1b 3x / riff 2b
3e couplet : fill / riff 1 / riff 2 / riff 1 / riff 2 / riff 1b 3x / riff 2b
4e couplet : riff 2 4x

1er Refrain
|---------0~~--------0~~--0-0~~-----------0~~--------0~~--0-0~~--------------------------0~~--0-0~~-|
|---------0~~--------0~~--0-0~~-----------0~~--------0~~--0-0~~--------------------------0~~--0-0~~-|
|--------------------0~~--0-0~~----------------------0~~--0-0~~--------------------------0~~--0-0~~-|
|-2-2-2~--2~~--4\3-3-3~~--3-3p0---2-2-2~--2~~--4\3-3-3~~--3-3p0---7/9-9-9-9\7-7-7--4\3-3-3~~--3-3~~-|
|-2-2-2~--2~~--4\3-3-3~~--3-3p0---2-2-2~--2~~--4\3-3-3~~--3-3p0---5/7-7-7-7\5-5-5--4\3-3-3~~--3-3~~-|
|-0-0-0~--0~~--2\1-1-1~~--1-1p0---0-0-0~--0~~--2\1-1-1~~--1-1p0---5/7-7-7-7\5-5-5--2\1-1-1~~--1-1~~-|
[ Tab from: http://www.guitartabs.cc/tabs/d/deftones/lifter_tab_ver_3.html ]
2e et 3e refrain
|---------0~~--------0~~--0-0~~-----------0~~--------0~~--0-0~~--------------------------0~~--0-0~~-|
|---------0~~--------0~~--0-0~~-----------0~~--------0~~--0-0~~--------------------------0~~--0-0~~-|
|--------------------0~~--0-0~~----------------------0~~--0-0~~--------------------------0~~--0-0~~-| 2x
|-2-2-2~--2~~--4\3-3-3~~--3-3p0---2-2-2~--2~~--4\3-3-3~~--3-3p0---7/9-9-9-9\7-7-7--4\3-3-3~~--3-3p0-|
|-2-2-2~--2~~--4\3-3-3~~--3-3p0---2-2-2~--2~~--4\3-3-3~~--3-3p0---5/7-7-7-7\5-5-5--4\3-3-3~~--3-3p0-|
|-0-0-0~--0~~--2\1-1-1~~--1-1p0---0-0-0~--0~~--2\1-1-1~~--1-1p0---5/7-7-7-7\5-5-5--2\1-1-1~~--1-1p0-|
 \____________________________/
      2x la seconde fois

|--------------------------------------------------------------------------------------------------|
|--------------------------------------------------------------------------------------------------|
|--------------------------------------------------------------------------------------------------|
|-7/9-9-9-9\7-7-7-7/9-9-9-9/1010p0-4-4-4-4-4-4-4-4-4-4-4-4-4-4-4-4-4-4-4-4-4-4-4-4-4-4-4-4-4-4-4-4-|
|-5/7-7-7-7\5-5-5-5/7-7-7-7/-8-8p0-2-2-2-2-2-2-2-2-2-2-2-2-2-2-2-2-2-2-2-2-2-2-2-2-2-2-2-2-2-2-2-2-|
|-5/7-7-7-7\5-5-5-5/7-7-7-7/-8-8p0-2-2-2-2-2-2-2-2-2-2-2-2-2-2-2-2-2-2-2-2-2-2-2-2-2-2-2-2-2-2-2-2-|

|---------0~~--------0~~--0-0~~-----------0~~--------0~~--0-0~~--------------------------0~~--0-0~~-|
|---------0~~--------0~~--0-0~~-----------0~~--------0~~--0-0~~--------------------------0~~--0-0~~-|
|--------------------0~~--0-0~~----------------------0~~--0-0~~--------------------------0~~--0-0~~-|
|-2-2-2~--2~~--4\3-3-3~~--3-3p0---2-2-2~--2~~--4\3-3-3~~--3-3p0---7/9-9-9-9\7-7-7--4\3-3-3~~--3-3~~-|
|-2-2-2~--2~~--4\3-3-3~~--3-3p0---2-2-2~--2~~--4\3-3-3~~--3-3p0---5/7-7-7-7\5-5-5--4\3-3-3~~--3-3~~-|
|-0-0-0~--0~~--2\1-1-1~~--1-1p0---0-0-0~--0~~--2\1-1-1~~--1-1p0---5/7-7-7-7\5-5-5--2\1-1-1~~--1-1~~-|

Final
|--------------------------------------------------------------------------------------------------|
|--------------------------------------------------------------------------------------------------|
|------------------------------8-------------------------------------------------------------------|
|-9-9-9-9-9-9-9-9-101010101010-6-7-4-4-4-4-4-4-4-4-4-4-4-4-4-4-4-4-4-4-4-4-4-4-4-4-4-4-4-4-4-4-4-4-|
|-7-7-7-7-7-7-7-7--8-8-8-8-8-8-6-5-2-2-2-2-2-2-2-2-2-2-2-2-2-2-2-2-2-2-2-2-2-2-2-2-2-2-2-2-2-2-2-2-|
|-7-7-7-7-7-7-7-7--8-8-8-8-8-8---5-2-2-2-2-2-2-2-2-2-2-2-2-2-2-2-2-2-2-2-2-2-2-2-2-2-2-2-2-2-2-2-2-|
  \______________________________/
                 8x

|----------------------------------0~~~~~~-|
|----------------------------------0~~~~~~-|
|------------------------------8---0~~~~~~-|
|-9-9-9-9-9-9-9-9-101010101010-6-7-2~~~~~~-|
|-9-9-9-9-9-9-9-9-101010101010-6-7-2~~~~~~-|
|-7-7-7-7-7-7-7-7--8-8-8-8-8-8---5-0~~~~~~-|
\________________________________/
                 8x
Comments