Deftones - Lifter Chords & Tabs

 

Lifter Chords & Tabs

Deftones Chords & Tabs

Version: 2 Type: Bass Tab 0 ratings
1 star 2 stars 3 stars 4 stars 5 stars
comments

Lifter Bass Tab

Artist:  Deftones
Record:  Adrenaline
Song:  Lifter (#5)
Tabber: Drew (deftoner)

This song is basically a bunch of repetition with the same riffs, just look 
at these parts and fit it into the song.  If you have any corrections email 
me at deftoner797@hotmail.com .


G---------------------------------||-------------------------------------
D---------------------------------||-------------------------------------
A-5h7-7-7-7-7-7-7-5h7-7-7-8-8-5-5-||-------------------------------------
E---------------------------------||-------------------------------------

[ Tab from: http://www.guitartabs.cc/tabs/d/deftones/lifter_btab_ver_2.html ]
-------------------------------------------------------------------------
-------------------------------------------------------------------------
5h7-7-7-7---------------------5h7-7-7-7-----------------------5h7-7-7-7--
------------0h1-1-1-1---1-1---------------0h1-1-1-1-1---1-1--------------


-------------------||---------------------------------------------||-----
-------------------||---------------------------------------------||-----
p5-5-5-------------||-2-2-2-2-2-2-2-2-2-2-2-2-2-2-2-2-2-2-2-2-2-2-||-----
-------0h1-1-1-1-1-||---------------------------------------------||-----
Comments