Deftones - Korea Chords & Tabs

 

Korea Chords & Tabs

Deftones Chords & Tabs

Version: 2 Type: Tab 0 ratings
1 star 2 stars 3 stars 4 stars 5 stars
comments

Korea Tab

   
Deftones	Korea						
C-G-C-F-A-D

Intro
|--------------------------------|
|-0-0-0-0-0-0-0-0-0-0-0-0--------|
|-------------------------6-6-6~-| 2x
|-8-8-8-8-8-8-8-8-8-8-8-8-6-6-6~-|
|-6-6-6-6-6-6-6-6-6-6-6-6-4-4-4~-|
|--------------------------------|

Refrain
|--------------------------------------------------------------|
|----------------------------------------------0-0-0-0-0-0-0-0-|
|--------6---6----------6---6----------6---6-------------------|
|---0~---6---6-----0~---6---6-----0~---6---6---8-8-8-8-8-8-8-8-|
|---0~---4--4-----0~---4---4-----0~---4---4---6-6-6-6-6-6-6-6-|
|-0-0~--0---0----0-0~--0---0----0-0~--0---0--------------------|
  .     .   .    .     .   .    .     .   .
[ Tab from: http://www.guitartabs.cc/tabs/d/deftones/korea_tab_ver_2.html ]
Couplet (introduit par le fill de gauche)
|--------||---------------------------------------------------------------|
|--------||-0-0-0-0-0-0-0-0-0-0-0-0----------0-0-0-0-0-0-0-0-0-0-0-0------|
|-6-6-6~-||-------------------------6-6-6~--------------------------------|
|-6-6-6~-||-8-8-8-8-8-8-8-8-8-8-8-8-6-6-6~---8-8-8-8-8-8-8-8-8-8-8-8---0~-|
|-4-4-4~-||-6-6-6-6-6-6-6-6-6-6-6-6-4-4-4~---6-6-6-6-6-6-6-6-6-6-6-6---0~-|
|--------||----------------------------------------------------------0-0~-|
            \_____________________________/                          .
                           3x

Pont
|-----------------------------------------------------------------|
|-----------------------------------------------------------------|
|-2-2-2-2-2-2-2-2-2-9-9-9-9-9-9-9-9-7-7-7-7-7-7-7-7-3-3-3-3-3-3-3-| 4x
|-0-0-0-0-0-0-0-0-0-7-7-7-7-7-7-7-7-5-5-5-5-5-5-5-5-1-1-1-1-1-1-1-|
|-0-0-0-0-0-0-0-0-0-7-7-7-7-7-7-7-7-5-5-5-5-5-5-5-5-1-1-1-1-1-1-1-|
|-0-0-0-0-0-0-0-0-0-7-7-7-7-7-7-7-7-5-5-5-5-5-5-5-5-1-1-1-1-1-1-1-|

|-----------------------------------------------------------------|
|-----------------------------------------------------------------|
|-2~~~----2~~~----2-9-9-9-9-9-9-9-9-7-7-7-7-7-7-7-7-3-3-3-3-3-3-3-| 8x
|-0~~~----0~~~----0-7-7-7-7-7-7-7-7-5-5-5-5-5-5-5-5-1-1-1-1-1-1-1-|
|-0~~~----0~~~----0-7-7-7-7-7-7-7-7-5-5-5-5-5-5-5-5-1-1-1-1-1-1-1-|
|-0~~~----0~~~----0-7-7-7-7-7-7-7-7-5-5-5-5-5-5-5-5-1-1-1-1-1-1-1-|

Outro
|--------------------|
|-0~--0~--0~--0~--0~-|
|--------------------|
|-8~--8~--8~--8~--8~-|
|-6~--6~--6~--6~--6~-|
|--------------------|
Comments