Deftones - Knife Prty Chords & Tabs

 

Knife Prty Chords & Tabs

Deftones Chords & Tabs

Version: 4 Type: Tab 0 ratings
1 star 2 stars 3 stars 4 stars 5 stars
comments

Knife Prty Tab

   
Deftones	Knife Prty						
C-G-C-F-A-D

Intro
|-----------------------------------------------------------------|
|-6---6-6-6-6-6---6-6-6-6-6---6-6-6---6-6-6-6-6---6-6-6-6-6---6-6-|
|-5---5-5-5-5-5---5-5-5-5-5---5-5-5---5-5-5-5-5---5-5-5-5-5---5-5-|
|-3---3-3-3-3-3---3-3-3-3-3---3-3-3---3-3-3-3-3---3-3-3-3-3---3-3-|
|-3---3-3-3-3-3---3-3-3-3-3---3-3-3---3-3-3-3-3---3-3-3-3-3---3-3-|
|-3---3-3-3-3-3---3-3-3-3-3---3-3-3---3-3-3-3-3---3-3-3-3-3---3-3-|

|------------------------------------------------------------------|
|-0---0-0-0-0-0---0-0-0-0-0---0-0-0----0-0-0-0-0---0-0-0-0-0---0-0-|
|------------------------------------------------------------------|
|-9---9-9-9-9-9---9-9-9-9-9---9-910---10101010-9---9-9-9-9-9---9-9-|
|-7---7-7-7-7-7---7-7-7-7-7---7-7-7----7-7-7-7-7---7-7-7-7-7---7-7-|
|-7---7-7-7-7-7---7-7-7-7-7---7-7-7----7-7-7-7-7---7-7-7-7-7---7-7-|
								   \___/
						      pas la dernière fois de l'intro
Couplet
|-0---0-0-0-0-0---0-0-0-0-0---0-0-0---0-0-0-0-0---0-0-0-0-0---0-0-|
|-6---6-6-6-6-6---6-6-6-6-6---6-6-6---6-6-6-6-6---6-6-6-6-6---6-6-|
|-5---5-5-5-5-5---5-5-5-5-5---5-5-5---5-5-5-5-5---5-5-5-5-5---5-5-|
|-3---3-3-3-3-3---3-3-3-3-3---3-3-3---3-3-3-3-3---3-3-3-3-3---3-3-|
|-3---3-3-3-3-3---3-3-3-3-3---3-3-3---3-3-3-3-3---3-3-3-3-3---3-3-|
|-3---3-3-3-3-3---3-3-3-3-3---3-3-3---3-3-3-3-3---3-3-3-3-3---3-3-|
[ Tab from: http://www.guitartabs.cc/tabs/d/deftones/knife_prty_tab_ver_4.html ]
|-0---0-0-0-0-0---0-0-0-0-0---0-0-0----0-0-0-0-0---0-0-0-0-0---0-0-|
|-0---0-0-0-0-0---0-0-0-0-0---0-0-0----0-0-0-0-0---0-0-0-0-0---0-0-|
|------------------------------------------------------------------|
|-9---9-9-9-9-9---9-9-9-9-9---9-910---10101010-9---9-9-9-9-9---9-9-|
|-7---7-7-7-7-7---7-7-7-7-7---7-7-7----7-7-7-7-7---7-7-7-7-7---7-7-|
|-7---7-7-7-7-7---7-7-7-7-7---7-7-7----7-7-7-7-7---7-7-7-7-7---7-7-|

Refrain
|-----------------------------------------------------------------------------------------------|
|-----------------------------------------------------------------------------------------------|
|-10--10--10--10-10-10-10--10--10--10-10---10—10-x9---9-9-9-9-9-9-9-9-x-9--x-9----9-9-9-9-9-9-9-|
|--8---8---8---8--8--8--8---8---8---8--8--------------------------------------------------------|
|--8---8---8---8--8--8--8---8---8---8--8----8--8-x7---7-7-7-7-7-7-7-7-x-8--x-7----7-7-7-7-7-7-7-|
|--8---8---8---8--8--8--8---8---8---8--8--------------------------------------------------------|

|------------------------------------------------|
|------------------------------------------------|
|-10--10--10--10-10-10-10--10--10--10-10--10~~~~-| dernière fois
|--8---8---8---8--8--8--8---8---8---8--8---------|
|--8---8---8---8--8--8--8---8---8---8--8---8~~~~-|
|--8---8---8---8--8--8--8---8---8---8--8---0~~~~-|

Pont
|-------------------------------------------------------|
|-------------------------------------------------------|
|--------10------------10--------------10------------10-|
|-10------------10----------s---10------------10--------|
|--7------8------7------8--ss-s--7----s-8----s-7----s-8-|
|--7------0------7------0--sssss-7----ss0----ss7----ss0-|
  \______________________/    \_______________________/
              2x                         2x

|--------------------------------------------------------------|
|--------------------------------------------------------------|
|--------------------------------10-10-1010-10-1010-10-1010-10-| 2x
|-10-10-1010-10-1010-10-1010-10--------------------------------|
|--7--7--7-7--7--7—7--7--7-7--7---8--8--8-8--8--8-8--8--8-8--8-|
|--7--7--7-7--7--7—7--7--7-7--7---0--0--0-0--0--0-0--0--0-0--0-|
Comments